Oops, an error
Loading. Please wait.

War Within A Breath tab

version 1
version 1

Whole song

Interactive

5,581 views 3 this week
2 commentsread comments
1 2 3 4 5
x 5
add to favorites
×
Save as Personal and add changes to this tab that will be seen only by you. Learn more ›
×
You can save this tab as Personal to edit and correct it or add notes. All changes will be seen only by you. Learn more »
launch autoscroll
font size
0
reset
how to read this tab
guitar tuner
edit
Autoscroll
slow
fast
+/-
esc
set tempo
stop
Author
Difficulty
I think it goes something like this... Tune your Whammy up 2 octaves, and just play this:

A-riff
E|--7+-------10--|
B|--7+-----------|
G|--7+-----------| + = 2 octaves up(toe down)
D|--7+-----------| o = normal pitch (toe up)
A|---------------| / =push at the same moment of playing the note(s)
D|---------------|
  o/+         o

Repeat it until this part: (00:29)

B part
E|-------------------|----------------|----------------|-----------------|
B|-------------------|----------------|----------------|-----------------|
G|-------14----14----|----13----13----|----12----12----|----11----11-----|
D|-12-12----12---12--|-12----12----12-|-12----12----12-|-12----12----12--| X2
A|-------------------|----------------|----------------|-----------------|
D|-------------------|----------------|----------------|-----------------|

At 00:48 the killing riff of the chorus:

C-riff
E|--------------------|--------------------|
B|--------------------|--------------------|
G|--------------------|--------------------|
D|-----------------3--|-----------------3--|
A|-----------3--5-----|-----------3--5-----|
D|--0--3--5-----------|--0--3--5-----------|

Then again the A-riff, and the B part, and at 01:55 strum the strings putting your
hand on them to produce the classic percussion sound until the chorus arrives! (02:01)
At 02:20 just mess around and play the 4th string along with notes of D major scale
on the 3rd string, 7 fret (or something like that...:s)
Finally, at 02:33, when Zack wishpers "It's land or death" just rock on with the Chorus
until 03:02, where Tom just does (I think) alternate sounds pushing the Whammy set two
up at the same moment he plays harmonics on the 19th fret... something like this:

A-riff
E|--19+----19+--|--19+----19+-|
B|--19+----19+--|--19+----19+-|
G|--19+----19+--|--19+----19+-| + = 2 octaves up(toe down)
D|--19+----19+--|--19+----19+-| o = normal pitch (toe up)
A|--------------|-------------|
D|--------------|-------------|
   o/+ /o  +      o/+/o   +

Hope it works and it helps! See ya mates!

            
            
Suggest correction
Creating personal tab
Creating personal tab
You can edit any tab online and save it as your Personal.

You can edit, replace or remove any tab part or add personal notes – all changes will be seen only by you.

Personal tabs can be accessed anytime from any device, even offline.
Learn more »
comments
print report bad tab
2 comments total.
+2 reply
c-rob6422 271 Jan 10, 2009 05:31 PM

bro good tab cept 4 one thing

a-----------3-5-
d-----0-3-5-----3
i think thats how tom plays the chorus part

0 reply
Hunter Morris 404 Jan 09, 2010 05:24 AM

also it is drop-d, but a half step down. (odd tuning for tom...)

guest
You may want to rate the tab now too:
select rating
Wanna post a correction for this tab? Suggest correction