Oops, an error
Loading. Please wait.

Passion To A Golden Dawn tab

1 view 1 this week
no commentswrite comment
1 2 3 4 5
3 more votes to show rating
add to favorites
×
Save as Personal and add changes to this tab that will be seen only by you. Learn more ›
×
You can save this tab as Personal to edit and correct it or add notes. All changes will be seen only by you. Learn more »
launch autoscroll
font size
0
reset
how to read this tab
guitar tuner
edit
Autoscroll
slow
fast
+/-
esc
set tempo
stop
[Verse 1]
e|---------------------------------------|
B|---------------------------------------|
G|-------------7-5---------5-------------|
D|-5-7-9-5-7-9-----9-7-7-9---7-5---------|
A|-------------------------------7-5-5-7-|
E|---------------------------------------|

Birds sang sweet in the silent trees.
Two lovers sat beneath their leaves.
Gaily we laughed just to hear their song,
held tight within the spell love weaves.
As children we danced in the Summer sun,
red light shone in her golden hair.
Her skin was stroked by the gentle breeze,
the days passed like dreams without a care.

[Verse 2]
e|---------------------------------------|
B|---------------------------------------|
G|-------------4-2---------2-------------|
D|-2-4-5-2-4-5-----5-4-4-5---4-2---------|
A|-------------------------------5-2-2-5-|
E|---------------------------------------|

But jealousy grew in their twisted minds.
They said witchcraft had made me blind.
"Such beauty cannot come from God,
devil's child, Daughter of the night".
So the soldiers came, took her away.
I watched the tears fall from her eyes.
She begged for mercy, begged them please.
They turned their hands, ignored her cries.

[Verse 3]
e|-------------------------|-------------------------|
B|-------------------------|-------------------------|
G|-------------------------|-------------------------|
D|-------------------------|-------------------------|
A|-2-2-2-2-2-2-2-5-2-2-4-5-|-7-7-7-7-7-7-7-7-7-7-5-4-|
E|-0-0-0-0-0-0-0-3-0-0-2-3-|-5-5-5-5-5-5-5-5-5-5-3-2-|
     . . . . . .   . .       . . . . . .   . .

Broken as she'd fell from the rafters,
hands tied back ripping sinews inside.
Numbed to the pain where the needles went
and the soldiers who stole her sweet honey at night.
What is this creature they drag from the cart?
Naked and bleeding, broken limbs hang limp at her sides.
Where is her red hair that once held the sun?
Shaved and ripped out in the name of their Christ.
Only the bruises and cracked dried blood
show where her sweet face used to be.
Split by a toothless gash, swollen and bloody.
Her puffed out eyes have no will to see.
Numb from the pain, too weak to stand.
The crowd spat and jeered as they dragged her by.
They took her and tied her to the log.
A solitary tear fell from her eye.
The flames licked at her purpled flesh.
Blackened, blistering bruises burst in the fire.
Not a scream, not a single cry, yet I feel her pain.
My heart rides with her on the pyre.

E5

[Acoustic part]
Em         C           G               Am 
And in the smoke which rises from that raging fire
Em         C           G               Am 
I see her face, pure and sweet as I'd remembered.
Em         C           G               Am 
And she whispered to me, "My love, we'll meet again".

[Verse 4]
e|-----------------------|-----------------------|
B|-----------------------|-----------------------|
G|-----------------------|-----------------------|
D|-------7-5-4-4-4-4-4-4-|-----------------------|
A|-2-2-2-5-3-2-2-2-2-2-2-|-5-5-5-5-5-5-7-7-7-5-4-|
E|-0-0-0-----------------|-3-3-3-3-3-3-5-5-5-3-2-|
     . .       . .   . .     . .   . .   . .

Ride on the northern wind like a raven, she calls my name.
From the raging blaze and the pain she'll rise again.
For those who died in the fire we'll take revenge.
We'll stalk in the shadows as wolves to slay the lambs of Christ.

[Acoustic part]
Em C G Am 


***********************************

| . - palm muting

***********************************

            
            
Suggest correction
Creating personal tab
Creating personal tab
You can edit any tab online and save it as your Personal.

You can edit, replace or remove any tab part or add personal notes – all changes will be seen only by you.

Personal tabs can be accessed anytime from any device, even offline.
Learn more »
Give kudos to tab author, rate the tab!
1 2 3 4 5
comments
print report bad tab
guest
You may want to rate the tab now too:
select rating
Wanna post a correction for this tab? Suggest correction