Oops, an error
Loading. Please wait.
We have Chord Pro version of Human.
It's the closest thing you can get to the original song and it has interactive parts. Check out the tab »
×

Human Bass

version 1
version 1

Whole song

  • NOTE: I have added a version for 5-string bass. If... Show more

Interactive

29,989 views 525 this week
2 commentsread comments
1 2 3 4 5
x 18
add to favorites
×
Save as Personal and add changes to this tab that will be seen only by you. Learn more ›
launch autoscroll
font size
0
reset
guitar tuner
Autoscroll
slow
fast
+/-
esc
set tempo
stop
Author
Difficulty
novice
--------------------------------------------------------------------------
                            Artist - Rag'n'Bone Man
                          **************************
                                Song - Human
                               **************
                             Tabbed By - Ayreon77
                            **********************
--------------------------------------------------------------------------
Tuning = Standard             



INTRO
******
G|---------------|-----------------|
D|---------------|-----------------|
A|---------------|-----------------|
E|-6-4-6---6-4-6-|-4-6-4-6---6-4-6-|X2


----------------------
00:13
VERSE 1
********
  Maybe I'm foolish................ 
G|---------------|-----------------|
D|---------------|-----------------|
A|---------------|-----------------|
E|-6-4-6---6-4-6-|-4-6-4-6---6-4-6-|X2

  But I'm only human.............
G|---------------|---------------|
D|---------------|---------------|
A|-9-6-9---9-6-9-|-6-4-6---6-4-6-|
E|---------------|---------------|

  Don't put your blame on me
G|---------------|-----------------|
D|---------------|-----------------|
A|---------------|-----------------|
E|-6-4-6---6-4-6-|-4-6-4-6---6-4-6-|


----------------------
00:38
VERSE 2
********
  Take a look in the mirror........
G|---------------|-----------------|
D|---------------|-----------------|
A|---------------|-----------------|
E|-6-4-6---6-4-6-|-4-6-4-6---6-4-6-|X2

  Cos I'm only human.............
G|---------------|---------------|
D|---------------|---------------|
A|-9-6-9---9-6-9-|-6-4-6---6-4-6-|
E|---------------|---------------|

  Don't put your blame on me
G|---------------|-----------------|
D|---------------|-----------------|
A|---------------|-----------------|
E|-6-4-6---6-4-6-|-4-6-4-6---6-4-6-|


----------------------
01:04
CHORUS
*******
  Some people got the real problems   Some people out of luck
G|-------------|-----------------------|-------------|-------------|
D|-------------|-----------------------|-------------|-------------|
A|------4--6-4-|------4--6-4-----------|------4--6-4-|------4--6-4-|
E|-6--6--------|-6--6------------------|-6--6--------|-6--6--------|

  Some people think I can solve them  Lord heavens above
G|-------------|-----------------------|-------------|-----------|
D|-------------|-----------------------|-------------|-----------|
A|------4--6-4-|------4--6-4-----------|------4--6-4-|-----------|
E|-6--6--------|-6--6------------------|-6--6--------|-6--6-4--4-|

  I'm only human after all    I'm only human after all
G|-------------|-------------|-------------|-------------|
D|-------------|-------------|-------------|-------------|
A|------4--6-4-|------4--6-4-|------4--6-4-|------4--6-4-|
E|-2--2--------|-2--2--------|-0--0--------|-0--0--------|

  Don't put the blame on me    Don't put the blame on me
G|-------------|-------------|-------------|---|
D|-------------|-------------|-------------|---|
A|------4--6-4-|------4--6-4-|------4--6-4-|---|
E|-6--6--------|-6--6--------|-6--6--------|-6-|


----------------------
01:30
VERSE 3
********
  Don't ask my opinion............. 
G|---------------|-----------------|
D|---------------|-----------------|
A|---------------|-----------------|
E|-6-4-6---6-4-6-|-4-6-4-6---6-4-6-|X2

  Cos I'm only human after all...
G|---------------|---------------|
D|---------------|---------------|
A|-9-6-9---9-6-9-|-6-4-6---6-4-6-|
E|---------------|---------------|

  Don't put your blame on me
G|---------------|-----------------|
D|---------------|-----------------|
A|---------------|-----------------|
E|-6-4-6---6-4-6-|-4-6-4-6---6-4-6-|


----------------------
01:55
CHORUS
*******
  Some people got the real problems     Some people out of luck
G|-------------|-----------------------|-------------|-------------|
D|-------------|-----------------------|-------------|-------------|
A|------4--6-4-|------4--6-4-----------|------4--6-4-|------4--6-4-|
E|-6--6--------|-6--6------------------|-6--6--------|-6--6--------|

  Some people think I can solve them    Lord heavens above
G|-------------|-----------------------|-------------|-----------|
D|-------------|-----------------------|-------------|-----------|
A|------4--6-4-|------4--6-4-----------|------4--6-4-|-----------|
E|-6--6--------|-6--6------------------|-6--6--------|-6--6-4--4-|

  I'm only human after all    I'm only human after all
G|-------------|-------------|-------------|-------------|
D|-------------|-------------|-------------|-------------|
A|------4--6-4-|------4--6-4-|------4--6-4-|------4--6-4-|
E|-2--2--------|-2--2--------|-0--0--------|-0--0--------|

  Don't put the blame on me    Don't put the blame on me
G|-------------|--------------|-------------|------------|
D|-------------|--------------|-------------|------------|
A|------4--6-4-|------4--6-4--|------4--6-4-|------4-----|
E|-6--6--------|-6--6---------|-6--6--------|-6--6---6-4-|


  I'm only human I make mistakes  I'm only human that's all it takes
G|------------|------------------|----------------------------|
D|------------|------------------|----------------------------|
A|------------|------------------|-----------------6--6-------|
E|-2--2--2--2-|-2--2--2--2-------|-2-1-0--0--6--6--------6--6-|

                  Don't put your blame on me 
G|---------------|---------------|------------------|
D|---------------|---------------|------------------|
A|-1--1--1-------|-1--1--1-------|-1--1--1--------1-|
E|---------4-1-4-|---------4-1-4-|---------4-1-4----|


----------------------
02:34
BRIDGE
*******
  I'm no prophet  or  messiah
G|------------|------------|------------|-----------------|
D|------------|------------|------------|-----------------|
A|-------10-9-|-------10-9-|-------10-9-|-------10-9-10-9-|
E|-9-9-9------|-9-9-9------|-6-6-6------|-6-6-6-----------|

  Should go looking somewhere higher
G|---------------------------------------|
D|-------------------------9-9-9-9-9-9-9-|
A|-------10-9--10-9---10-9---------------|
E|-9-9-9------------9--------------------|


ENJOY.......

Suggest correction
comments
print report bad tab
2 comments total.
+2 reply
elenacastasil 10 Jan 29, 2017 03:46 AM

thank you

guest
You may want to rate the tab now too:
select rating
Wanna post a correction for this tab? Suggest correction