Oops, an error
Loading. Please wait.

Human Bass Tab

version 1
version 1

Whole song

Interactive

3,505 views 720 this week
no commentswrite comment
1 2 3 4 5
1 last vote to show rating
add to favorites
launch autoscroll
font size
0
reset
guitar tuner
Autoscroll
slow
fast
+/-
esc
set tempo
stop
Help us to improve Ultimate-Guitar.com Take our survey!
×
Author
Difficulty
novice
--------------------------------------------------------------------------
                            Artist - Rag'n'Bone Man
                          **************************
                                Song - Human
                               **************
                             Tabbed By - Ayreon77
                            **********************
--------------------------------------------------------------------------
Tuning = Standard             



INTRO
******
G|---------------|-----------------|
D|---------------|-----------------|
A|---------------|-----------------|
E|-6-4-6---6-4-6-|-4-6-4-6---6-4-6-|X2



----------------------
00:13
VERSE 1
********
  Maybe I'm foolish................ 
G|---------------|-----------------|
D|---------------|-----------------|
A|---------------|-----------------|
E|-6-4-6---6-4-6-|-4-6-4-6---6-4-6-|X2

  But I'm only human.............
G|---------------|---------------|
D|---------------|---------------|
A|-9-7-9---9-7-9-|-7-5-7---7-5-7-|
E|---------------|---------------|

  Don't put your blame on me
G|---------------|-----------------|
D|---------------|-----------------|
A|---------------|-----------------|
E|-6-4-6---6-4-6-|-4-6-4-6---6-4-6-|


----------------------
00:38
VERSE 2
********
  Take a look in the mirror........
G|---------------|-----------------|
D|---------------|-----------------|
A|---------------|-----------------|
E|-6-4-6---6-4-6-|-4-6-4-6---6-4-6-|X2

  Cos I'm only human.............
G|---------------|---------------|
D|---------------|---------------|
A|-9-7-9---9-7-9-|-7-5-7---7-5-7-|
E|---------------|---------------|

  Don't put your blame on me
G|---------------|-----------------|
D|---------------|-----------------|
A|---------------|-----------------|
E|-6-4-6---6-4-6-|-4-6-4-6---6-4-6-|


----------------------
01:04
CHORUS
*******
  Some people got the real problems   Some people out of luck
G|-------------|-----------------------|-------------|-------------|
D|-------------|-----------------------|-------------|-------------|
A|------5--7-5-|------5--7-5-----------|------5--7-5-|------5--7-5-|
E|-6--6--------|-6--6------------------|-6--6--------|-6--6--------|

  Some people think I can solve them  Lord heavens above
G|-------------|-----------------------|-------------|-----------|
D|-------------|-----------------------|-------------|-----------|
A|------5--7-5-|------5--7-5-----------|------5--7-5-|-----------|
E|-6--6--------|-6--6------------------|-6--6--------|-6--6-4--4-|

  I'm only human after all    I'm only human after all
G|-------------|-------------|-------------|-------------|
D|-------------|-------------|-------------|-------------|
A|------5--7-5-|------5--7-5-|------5--7-5-|------5--5-7-|
E|-2--2--------|-2--2--------|-0--0--------|-0--0--------|

  Don't put the blame on me    Don't put the blame on me
G|-------------|--------------|-------------|---|
D|-------------|--------------|-------------|---|
A|------5--7-5-|------5--7-5--|------5--7-5-|---|
E|-6--6--------|-6--6---------|-6--6--------|-6-|


----------------------
01:30
VERSE 3
********
  Don't ask my opinion............. 
G|---------------|-----------------|
D|---------------|-----------------|
A|---------------|-----------------|
E|-6-4-6---6-4-6-|-4-6-4-6---6-4-6-|X2

  Cos I'm only human after all...
G|---------------|---------------|
D|---------------|---------------|
A|-9-7-9---9-7-9-|-7-5-7---7-5-7-|
E|---------------|---------------|

  Don't put your blame on me
G|---------------|-----------------|
D|---------------|-----------------|
A|---------------|-----------------|
E|-6-4-6---6-4-6-|-4-6-4-6---6-4-6-|


----------------------
01:55
CHORUS
*******
  Some people got the real problems     Some people out of luck
G|-------------|-----------------------|-------------|-------------|
D|-------------|-----------------------|-------------|-------------|
A|------5--7-5-|------5--7-5-----------|------5--7-5-|------5--7-5-|
E|-6--6--------|-6--6------------------|-6--6--------|-6--6--------|

  Some people think I can solve them    Lord heavens above
G|-------------|-----------------------|-------------|-----------|
D|-------------|-----------------------|-------------|-----------|
A|------5--7-5-|------5--7-5-----------|------5--7-5-|-----------|
E|-6--6--------|-6--6------------------|-6--6--------|-6--6-4--4-|

  I'm only human after all    I'm only human after all
G|-------------|-------------|-------------|-------------|
D|-------------|-------------|-------------|-------------|
A|------5--7-5-|------5--7-5-|------5--7-5-|------5--5-7-|
E|-2--2--------|-2--2--------|-0--0--------|-0--0--------|

  Don't put the blame on me    Don't put the blame on me
G|-------------|--------------|-------------|------------|
D|-------------|--------------|-------------|------------|
A|------5--7-5-|------5--7-5--|------5--7-5-|------5-----|
E|-6--6--------|-6--6---------|-6--6--------|-6--6---6-4-|


  I'm only human I make mistakes  I'm only human that's all it takes
G|------------|------------------|----------------------------|
D|------------|------------------|----------------------------|
A|------------|------------------|-----------------7--7-------|
E|-2--2--2--2-|-2--2--2--2-------|-2-1-0--0--6--6--------7--7-|

                  Don't put your blame on me 
G|------------------------------|----------------|
D|------------------------------|----------------|
A|------------------------------|----------------|
E|-6--6--6-4-2-2--6--6--6-6-4-4-|-6-6--6-6-4-4-6-|


----------------------
02:34
BRIDGE
*******
  I'm no prophet  or  messiah
G|------------|------------|------------|-----------------|
D|------------|------------|------------|-----------------|
A|-------10-9-|-------10-9-|-------10-9-|-------10-9-10-9-|
E|-9-9-9------|-9-9-9------|-6-6-6------|-6-6-6-----------|

  Should go looking somewhere higher
G|---------------------------------------|
D|-------------------------9-9-9-9-9-9-9-|
A|-------10-9--10-9---10-9---------------|
E|-9-9-9------------9--------------------|


ENJOY.......

Suggest correction
Give kudos to tab author, rate the tab!
1 2 3 4 5
comments
print report bad tab
guest
You may want to rate the tab now too:
select rating
Wanna post a correction for this tab? Suggest correction