Oops, an error
Loading. Please wait.
We have Chord Pro version of Human.
It's the closest thing you can get to the original song and it has interactive parts. Check out the tab »
×

Human bass

version 2
version 2

Whole song

  • NOTE: I have added a version for 5-string bass. If... Show more

Interactive

5,053 views 66 this week
no commentswrite comment
1 2 3 4 5
1 last vote to show rating
add to favorites
×
Save as Personal and add changes to this tab that will be seen only by you. Learn more ›
×
You can save this tab as Personal to edit and correct it or add notes. All changes will be seen only by you. Learn more »
launch autoscroll
font size
0
reset
guitar tuner
edit
Autoscroll
slow
fast
+/-
esc
set tempo
stop
Author
Difficulty
About this tab version
NOTE: I have added a version for 5-string bass. If you like to play it on a 4-string you may better use a Drop D - Tuning. Was this info helpful? Yes No
[Intro]

G|---------------|-----------------|
D|---------------|-----------------|
A|---------------|-----------------|
E|-6-4-6---6-4-6-|-4-6-4-6---6-4-6-| 
B|---------------|-----------------| x2


[Verse 1] "Maybe I´m foolish ..."

G|---------------|-----------------|
D|---------------|-----------------|
A|---------------|-----------------|
E|-6-4-6---6-4-6-|-4-6-4-6---6-4-6-| 
B|---------------|-----------------| x2

G|---------------|-----------------|
D|-4---4---4---4-|-----------------|
A|---6-------6---|-6-4-6---6-4-6---|
E|---------------|-----------------|
B|---------------|-----------------| 

G|---------------|-----------------|
D|---------------|-----------------|
A|---------------|-----------------|
E|-6-4-6---6-4-6-|-4-6-4-6---6-4-6-|
B|---------------|-----------------| 

[Verse 2] "Take a look in the mirror ..."

G|---------------|-----------------|
D|---------------|-----------------|
A|---------------|-----------------|
E|-6-4-6---6-4-6-|-4-6-4-6---6-4-6-| 
B|---------------|-----------------| x2

G|---------------|-----------------|
D|-4---4---4---4-|-----------------|
A|---6-------6---|-6-4-6---6-4-6---|
E|---------------|-----------------|
B|---------------|-----------------| 

G|---------------|-----------------|
D|---------------|-----------------|
A|---------------|-----------------|
E|-6-4-6---6-4-6-|-4-6-4-6---6-4-6-|
B|---------------|-----------------| 

[Chorus 1] "Some people got the real problems ..."

G|---------------|---------------|---------------|---------------|
D|---------------|---------------|---------------|---------------|
A|------4--6-4---|------4--6-4---|------4--6-4---|------4--6-4---|
E|-6--6----------|-6--6----------|-6--6----------|-6--6----------|
B|---------------|---------------|---------------|---------------| 


G|---------------|---------------|---------------|---------------|
D|---------------|---------------|---------------|---------------|
A|------4--6-4---|------4--6-4---|------4--6-4---|---------------|
E|-6--6----------|-6--6----------|-6--6----------|-6--6--4--4----|
B|---------------|---------------|---------------|---------------| 

G|---------------|---------------|---------------|---------------|
D|---------------|---------------|---------------|---------------|
A|------4--6-4---|------4--6-4---|-------4--6-4--|-------4--4-6--|
E|-2--2----------|-2--2----------|---------------|---------------|
B|---------------|---------------|-4--4----------|-4--4----------| 

G|---------------|---------------|---------------|---------------|
D|---------------|---------------|---------------|---------------|
A|------4--6-4---|------4--6-4---|------4--6-4---|---------------|
E|-6--6----------|-6--6----------|-6--6----------|-6-------------|
B|---------------|---------------|---------------|---------------| 

[Verse 3] "Don't ask my opinion ..."

G|---------------|-----------------|
D|---------------|-----------------|
A|---------------|-----------------|
E|-6-4-6---6-4-6-|-4-6-4-6---6-4-6-| 
B|---------------|-----------------| x2

G|---------------|-----------------|
D|-4---4---4---4-|-----------------|
A|---6-------6---|-6-4-6---6-4-6---|
E|---------------|-----------------|
B|---------------|-----------------| 

G|---------------|-----------------|
D|---------------|-----------------|
A|---------------|-----------------|
E|-6-4-6---6-4-6-|-4-6-4-6---6-4-6-|
B|---------------|-----------------| 

[Chorus 2] "Some people got the real problems ..."

G|---------------|---------------|---------------|---------------|
D|---------------|---------------|---------------|---------------|
A|------4--6-4---|------4--6-4---|------4--6-4---|------4--6-4---|
E|-6--6----------|-6--6----------|-6--6----------|-6--6----------|
B|---------------|---------------|---------------|---------------| 


G|---------------|---------------|---------------|---------------|
D|---------------|---------------|---------------|---------------|
A|------4--6-4---|------4--6-4---|------4--6-4---|---------------|
E|-6--6----------|-6--6----------|-6--6----------|-6--6--4--4----|
B|---------------|---------------|---------------|---------------| 

G|---------------|---------------|---------------|---------------|
D|---------------|---------------|---------------|---------------|
A|------4--6-4---|------4--6-4---|-------4--6-4--|-------4--4-6--|
E|-2--2----------|-2--2----------|---------------|---------------|
B|---------------|---------------|-4--4----------|-4--4----------| 

G|---------------|---------------|---------------|---------------|
D|---------------|---------------|---------------|---------------|
A|------4--6-4---|------4--6-4---|------4--6-4---|---------------|
E|-6--6----------|-6--6----------|-6--6----------|-6--6-4--6-4---|
B|---------------|---------------|---------------|---------------| 


G|---------------|---------------|---------------|---------------|
D|---------------|---------------|---------------|---------------|
A|---------------|---------------|---------------|-6--6----------|
E|-2--2--2--2----|-2--2--2--2----|-------6--6----|-------6--6----|
B|---------------|---------------|-4--4----------|---------------| 

G|---------------|---------------|---------------|---------------|
D|---------------|---------------|---------------|---------------|
A|-1--1--1-------|-1--1--1-------|-1--1--1-------|-1-------------|
E|---------4-1-4-|---------4-1-4-|---------4-1-4-|---------------|
B|---------------|---------------|---------------|---------------| 

[Bridge] "I´m not a prophet ..."

G|---------------|---------------|---------------|---------------|
D|---------4-3---|---------4-3---|---------4-3---|-------4-3-4-3-|
A|-4-4-4---------|-4-4-4---------|---------------|---------------|
E|---------------|---------------|-6-6-6---------|-6-6-6---------|
B|---------------|---------------|---------------|---------------| 

G|---------------|---------------|---------------|---------------|
D|---------4-3---|-4-3------4-3--|--3-3-3-3-3-3--|--3------------|
A|-4-4-4---------|------4--------|---------------|---------------|
E|---------------|---------------|---------------|---------------|
B|---------------|---------------|---------------|---------------| 


[Outro] without Bass

G|---------------|---------------|---------------|---------------|
D|---------------|---------------|---------------|---------------|
A|---------------|---------------|---------------|---------------|
E|---------------|---------------|---------------|---------------|
B|---------------|---------------|---------------|---------------|



Suggest correction
Creating personal tab
Creating personal tab
You can edit any tab online and save it as your Personal.

You can edit, replace or remove any tab part or add personal notes – all changes will be seen only by you.

Personal tabs can be accessed anytime from any device, even offline.
Learn more »
Give kudos to tab author, rate the tab!
1 2 3 4 5
comments
print report bad tab
guest
You may want to rate the tab now too:
select rating
Wanna post a correction for this tab? Suggest correction