Oops, an error
Loading. Please wait.

Love You Any Less chords

2,152 views 36 this week
1 commentread comment
1 2 3 4 5
x 7
add to favorites
×
Save as Personal and add changes to this tab that will be seen only by you. Learn more ›
×
You can save this tab as Personal to edit and correct it or add notes. All changes will be seen only by you. Learn more »
launch autoscroll
font size
0
reset
transpose
0
reset
display chords
guitar tuner
edit
Autoscroll
slow
fast
+/-
esc
set tempo
stop
Author
Difficulty
Strumming
There is no strumming pattern for this song yet. and get +5 IQ
[Main riff]
e|----------------|-----------------|
B|-----7---8------|-----7---8-------|
G|-9--------------|-9---------------|
D|-9---------9----|-9---------9-----|
A|-7--------------|-7---------------|
E|----------------|-----------------|5x

Em
Sunlight is too much for you to bear
It's high time you came up for air
Don't hide a single thing behind your perfect skin
Don't keep your secrets in a prayer

[Pre-Chorus]
e|----------------|-----------------|-----------------|-----------------|
B|-----7---8------|-----7---8-------|-----7---8-------|-----------------|
G|-9--------------|-7---------------|-5---------------|-2---------------|
D|-9---------9----|-7---------9-----|-5---------9-----|-2---------------|
A|-7--------------|-5---------------|-3---------------|-0---------------|
E|----------------|-----------------|-----------------|-----------------|

         Em
There is nothing you can say or do
        D
I won't cut you loose, no
             C
So break the silence
                              Am
We know that we can brave it all

[Chorus]
G                         Bm
If you're hoping we'll be home
G                          Bm    D
Don't be afraid to ask for help
C                             G
It won't make me love you any less
C                             G     D
It won't make me love you any less
Em
Don't hide behind me
                        D        C
You're strong enough to face the fall
     Bm  Am                      Em
It won't make me love you any less

[Verse 2]
e|----------------|-----------------|
B|-----7---8------|-----7---8-------|
G|-9--------------|-9---------------|
D|-9---------9----|-9---------9-----|
A|-7--------------|-7---------------|
E|----------------|-----------------|3x

Em
No shame, no hurt, nothing to lose
My love my heart don't need to prove

[Pre-Chorus]
e|----------------|-----------------|-----------------|-----------------|
B|-----7---8------|-----7---8-------|-----7---8-------|-----7---8-------|
G|-9--------------|-7---------------|-5---------------|-2---------------|
D|-9---------9----|-7---------9-----|-5---------9-----|-2---------9-----|
A|-7--------------|-5---------------|-3---------------|-0---------------|
E|----------------|-----------------|-----------------|-----------------|

Em
And there's nothing you can say or do
         D
There's no one that can change my mind
           C                                    Am
It's not a weakness, we all have our crosses to bear

[Chorus]
G                         Bm
If you're hoping we'll be home
G                          Bm    D
Don't be afraid to ask for help
C                             G    D
It won't make me love you any less
C                             G     D
It won't make me love you any less
Em
Don't hide behind me
                        D        C
You're strong enough to face the fall
     Bm  Am                      Em
It won't make me love you any less

[Bridge]
Am(closed)              Em(closed) D
Time to call me from the cold
Am(closed)               Em(closed) D
Time to let the truth be told
         Am(closed)           Em(closed)
It won't make me love you any less

[Pre-Chorus]
G                         Bm
If you're hoping we'll be home
G                          Bm    D
Don't be afraid to ask for help
C                             G
It won't make me love you any less
C                             G     D
It won't make me love you any less
Em
Don't hide behind me
                        D        C
You're strong enough to face the fall
     Bm  Am                      Em
It won't make me love you any less

            
            
Suggest correction
Creating personal tab
Creating personal tab
You can edit any tab online and save it as your Personal.

You can edit, replace or remove any tab part or add personal notes – all changes will be seen only by you.

Personal tabs can be accessed anytime from any device, even offline.
Learn more »
comments
print report bad tab
1 comment total.
0 reply
uhlkai 10 May 24, 2017 10:16 AM

Pretty cool. Don't use the riffs, but the chords and the lyrics are fitting nicely.

guest
You may want to rate the tab now too:
select rating
Wanna post a correction for this tab? Suggest correction