Oops, an error
Loading. Please wait.

Art And A Wife Tab

436 views 1 this week
no commentswrite comment
1 2 3 4 5
please rate
add to favorites
launch autoscroll
font size
0
reset
how to read this tab
guitar tuner
Autoscroll
slow
fast
+/-
esc
set tempo
stop
Help us to improve Ultimate-Guitar.com Take our survey!
×
Author
Difficulty
novice
-------------------------------------------------------------------------------
                             Art and a Wife - Rah Rah
-------------------------------------------------------------------------------
Tabbed by: SpaceWalrus
E-mail: jimiraffety@yahoo.com

Tuning: Standard


So I've never seen a single tab for this band, let alone this song, so I decided
to make an attempt myself.

The band's official website can be found here- http://www.rahrahband.com


e|-------------------2---2-2---2-2-------------------2---2-2---2---|
B|-----3---5/7-5-----3---3-3---3-3-----3---5/7-5-----3---3-3---3---|
G|-2/4---4-------7-4-2---2-2---2-2-2/4---4-------7-4-2---2-2---2---|
D|-------------------0---0-0---0-0-------------------0---0-0---0---|
A|-------------------x---x-x---x-x-------------------x---x-x---x---|
E|-------------------2---2-2---2-2-------------------2---2-2---2---|


************************************

| /   slide up

************************************
Suggest correction
Give kudos to tab author, rate the tab!
1 2 3 4 5
comments
print report bad tab
guest
You may want to rate the tab now too:
select rating
Wanna post a correction for this tab? Suggest correction