Oops, an error
Loading. Please wait.

Cayo La Lluvia tab

version 3
version 3

Whole song

by Raices
12 views 1 this week
no commentswrite comment
1 2 3 4 5
3 more votes to show rating
add to favorites
×
Save as Personal and add changes to this tab that will be seen only by you. Learn more ›
×
You can save this tab as Personal to edit and correct it or add notes. All changes will be seen only by you. Learn more »
launch autoscroll
font size
0
reset
how to read this tab
guitar tuner
edit
Autoscroll
slow
fast
+/-
esc
set tempo
stop
ACORDES:> REm SOLm DO FA

hola esta es mi primera transcripcion de raices un exelente grupo
boliviano ojala les guste cualquier cosa me escriben a mi correo ok

Punteada del intro

e/----------------------------------------8-56-5-6-5---------------/
b/-5/6-6-5-5-------------------5-5-6-8-88--------------------------/
g/-----------7-77-555----------------------------------------------/
d/-------------------8-7-8-7-5-------------------------------------/
a/-----------------------------------------------------------------/
E/-----------------------------------------------------------------/


e/---------------------------------------8-565---------------------/
b/-5/6-6-5-5-------------------5-5-6-8-88------8-10-8-6-8-6-5------/
g/-----------7-77-555----------------------------------------------/
d/-------------------8-7-8-7-5-------------------------------------/
a/-----------------------------------------------------------------/
E/-----------------------------------------------------------------/


REm               SOLm
Hoy... me siento solo
DO                     FA     LA
Porque no he podido conquistarte
REm               SOLm
siempre que quiero hablarte
DO                       FA     LA
de lo q siento por ti me ignoras
REm                   SOLm
y me siento triste al saber
DO                  FA       LA
que tu jamas me corresponderas

CORO

REm                                           SOLm
Entonces que caiga la lluvia como lagrimas a mi corazon
DO                                 FA              LA
y hare que sople el viento como suspiro de esta cancion
REm                         SOLm
mañana sera otro dia cuando salga el sol
 DO                       FA     LA             REm
quizas pueda llegar a tu corazon... en esta cancion
                            SOLm
Me muero, me entierro y me quemo
DO                                              FA        LA
me muerdo los labios saber que ya tu no me quieres y que jamas
             REm      SOLm
me corresponderas...no no no.
DO                  FA            LA
otra ves amanecio nublado bajo el sol

e/----------------------------------------8-56-5-6-5---------------/
b/-5/6-6-5-5-------------------5-5-6-8-88--------------------------/
g/-----------7-77-555----------------------------------------------/
d/-------------------8-7-8-7-5-------------------------------------/
a/-----------------------------------------------------------------/
E/-----------------------------------------------------------------/


e/---------------------------------------8-565---------------------/
b/-5/6-6-5-5-------------------5-5-6-8-88------8-10-8-6-8-6-5------/
g/-----------7-77-555----------------------------------------------/
d/-------------------8-7-8-7-5-------------------------------------/
a/-----------------------------------------------------------------/
E/-----------------------------------------------------------------/


REm                   SOLm
y me siento triste al saber
DO               FA          LA
que tu jamas me corresponderas

CORO

REm                                          SOLm
Entonces que caiga la lluvia como lagrimas a mi corazon
DO                                  FA           A
y hare que sople el viento como suspiro de esta cancion
REm                            SOLm
mañana sera otro dia cuando salga el sol
 DO                    FA       LA                REm
quizas pueda llegar a tu corazon... en esta cancion
                          SOLm
Me muero, me entierro y me quemo
DO                                              FA        LA
me muerdo los labios saber que ya tu no me quieres y que jamas
             REm      SOLm
me corresponderas...no no no.


DO                    FA      LA        REm
Otra vez amanecio nublado y cayo la lluvia...

            
            
Suggest correction
Creating personal tab
Creating personal tab
You can edit any tab online and save it as your Personal.

You can edit, replace or remove any tab part or add personal notes – all changes will be seen only by you.

Personal tabs can be accessed anytime from any device, even offline.
Learn more »
Give kudos to tab author, rate the tab!
1 2 3 4 5
comments
print report bad tab
guest
Wanna post a correction for this tab? Suggest correction