Oops, an error
Loading. Please wait.

Mar De Soledad tab

by Raices
19 views 1 this week
no commentswrite comment
1 2 3 4 5
3 more votes to show rating
add to favorites
×
Save as Personal and add changes to this tab that will be seen only by you. Learn more ›
×
You can save this tab as Personal to edit and correct it or add notes. All changes will be seen only by you. Learn more »
launch autoscroll
font size
0
reset
how to read this tab
guitar tuner
edit
Autoscroll
slow
fast
+/-
esc
set tempo
stop
hola!! MI NOMBRE ES ORLANDO saque los arpegios de esta cancion
por q m gusta muchisimo
espero que les agrade!! no es tan dificil.....

INTRO:

 SOL                        -MI
 -3--------------------------0--------------------------------
 -------------------------------------------------------------
 -------------------------------------------------------------
 -------0-----0-------0--------------0-----0--------0---------
 -----0-----0-------0------0-------0-----0--------0--------0--
 ---3-----3-----3-3-----023------0-----0-----0-0-------023----

 DO                           RE
 -------------------------------------------------------------
 -3-----------------------------------------------------------
 ------------------------------0------------------------------
 -------0-----0-------0----------------2-----2----------------
 -----1-----1-------1------0---------3-----3------------------
 ---0-----0-----0-0-----023--------2-----2------2-0235320-----

 SOL                        -MI
 -3----------------------------0------------------------------
 -------------------------------------------------------------
 -------------------------------------------------------------
 -------------------------------------------------------------
 -----0------------------0----------0------------------0------
 ---3---3/5-5-3-3-2--023----------0---2/3-3-2-2-0--023--------

 DO                     RE
 -------------------------------------------------------------
 -3-----------------------------------------------------------
 -------------------------------------------------------------
 -----------------------------------------------2-------------
 -----2---------------------------------------3---------------
 ---0---2/5-5-3-3-2------0-2-3-5-7-5-3-2-0--2------2----------

SOL                                     MIm
un dia me sente a escribir mis sueños
  DO           LAm               RE 
y no pude creer q sos mi inspiracion vos
 SOL                               MIm
estas en cada parte de mi cuerpo
   DO            LAm              RE 
en mis pensamiento estas tu

SOL                                   MIm
me pregunto si te acuerdas de mi
 DO                    LAm          RE 
o quizas ya te olvidaste de mi vida
SOL                              MIm
si alguna vez yo puedo encontrar
 DO                 LAm                    RE 
el camino q me lleve donde estas vos wuos.....


coro
SOL                              SIm
Preguntale a la luna de mi vida....
DO              LAm            RE 
preguntale al cielo de los dos....
SOL                                  SIm
pregunta las entrellas de mis sueños...
 LAm              DO          RE 
preguntale al mar de mi amor
_______________________________________

SOL                           MIm
aun mantengo vivo tu recuerdo
  DO           LAm                   RE 
tu tienes la llave que abre mi corazon
SOL                           MIm
creo respirar tu dulce aliento
 DO                 LAm          RE 
mis lagrimas son mar de soledad

SOL                                   MIm
me pregunto si te acuerdas de mi
DO                      LAm           RE 
o quizas ya te olvidaste de mi vida
SOL                             MIm
si alguna vez yo puedo encontrar
DO                     LAm                    RE 
el camino que me lleve donde estas voss wouo


coro:
SOL                        SIm
preguntale a la luna de vida
DO              LAm             RE 
preguntale al cielo de los dos wouu
SOL                                  SIm
pregunta a las estrellas de mis sueños
LAm                DO       RE      MI 
preguntale al mar de mi amooooor


LA                              DO#m
preguntale a la luna de mi vida
RE               SIm             MI 
preguntale al cielo de los dos wouu
LA                                    DO#m
pregunta a las estrellas de mis sueños
SIm                RE    MI    RE  MI  LA 
preguntale al maaaaaar    de mi amoooor


ESPERO QUE LES GUSTE

CUALQUIER DUDA ESTE ES MI CORREO
LANDITO_26@

            
            
Suggest correction
Creating personal tab
Creating personal tab
You can edit any tab online and save it as your Personal.

You can edit, replace or remove any tab part or add personal notes – all changes will be seen only by you.

Personal tabs can be accessed anytime from any device, even offline.
Learn more »
Give kudos to tab author, rate the tab!
1 2 3 4 5
comments
print report bad tab
guest
Wanna post a correction for this tab? Suggest correction