Oops, an error
Loading. Please wait.

Quisiera chords

version 2
version 2

Whole song

by Raices
16 views 1 this week
no commentswrite comment
1 2 3 4 5
3 more votes to show rating
add to favorites
×
Save as Personal and add changes to this tab that will be seen only by you. Learn more ›
×
You can save this tab as Personal to edit and correct it or add notes. All changes will be seen only by you. Learn more »
launch autoscroll
font size
0
reset
transpose
0
reset
simplify chords
display chords
guitar tuner
edit
Autoscroll
slow
fast
+/-
esc
set tempo
stop
Strumming
There is no strumming pattern for this song yet. and get +5 IQ
ISTRUCCIONES.- se empieza a acompañar con la 2da guitarra 
desde sol2, que es sol+ sin variación solo lo coloqué para que se 
guíen...y otra cosa más, el riff lo hace la segunda guitarra, la nota La2 
es repetida como en el intro y vale como tal La+.

Intro

Primer guitarra
punteado    rasgado acompañado del riff1 
G A D   G2 A D. . . . . .           
    riff2
G A F#m Bm G A D LA2 LA2   LA2 LA2 LA2
Segunda guitarra
riff1
   A           D
e|-7-7-7-7-7-5--5-5-5----------------------------------------------
B|----------------------------------------------------------------- 
G|-----------------------------------------------------------------
D|-----------------------------------------------------------------
A|-----------------------------------------------------------------
E|-----------------------------------------------------------------
riff2
   A           D    G   A       F#m   Bm  G    D
e|-7-7-7-7-7-5--5-5-5----------------------------------------------
B|-------------------7-5-5-7/5-2-2-2-2-3-3-3-2-2-0-0-0-3-2/3------- 
G|-----------------------------------------------------------------
D|-----------------------------------------------------------------
A|-----------------------------------------------------------------
E|-----------------------------------------------------------------

A2  D           A
    Quisiera...
                 D    RIFF
    Volver otra vez.
G          A              D  RIFF
    Aquellos días cuando te amé
G         A                  F#m
    Aquella vez cuando en mi cuarto
            Bm  
    me dijiste si
G         A                  D     A2
    Aquella vez que nunca olvidarée...

    D           A
    Quisiera...
                     D    RIFF
    Volverte a encontrar.
G             A                D    RIFF
    Por todo el mundo te voy a buscaar
G           A            F#m       Bm
    Por favor vuelve y dame otra oportunidad
         G       A                 D    RIFF
    Para quererte igual que un tiempo atrás


G           A         D  RIFF
   Siempre te voy a recordar 
      
   Lo sabes bien
G          A       D  RIFF
   Nunca te voy a olvidar 
   
   lo sabes bien
G           A                
   Por que tú has sido y siempree                                            
F#m    Bm 
   Tu seráas... 
G          A              D    RIFF
   La única mujer que voy a amar... 


G        A         D  RIFF
    No te dejé de extrañar 
    
    lo sabes bien
G          A          D  RIFF   
    Que tengo mucho para dar
    
    lo sabes bien
G           A                
    Por que tú has sido y siempree                                              
F#m     Bm    
    Tu seráas... 
G          A              D    RIFF
    La única mujer que voy a amar... 

Primer guitarra

G A D   G A D   SOL LA F# Bm   SOL LA RE      

Segunda guitarra 

e|-------------------------------------------------------------
B|-2/3-3-3-2-3-5-3--------------2/3-3-3-2-3-5-3----------------
G|----------------2-2-2-0-2/4-2----------------2-2-2-0-2/4-2---
D|-------------------------------------------------------------
A|-------------------------------------------------------------
E|-------------------------------------------------------------


e|--------------------------------3-3-3-2-2-0-0-0-------------------------
B|-2/3-3-3-2-3-5-3----7-5-7-5-3--3----------------3-2/3-2-3/5-3-3-3-2-3-3-
G|------------------------------------------------------------------------
D|------------------------------------------------------------------------
A|------------------------------------------------------------------------
E|------------------------------------------------------------------------

uuummmmmmm..
G           A         D  RIFF
   Siempre te voy a recordar 
      
   Lo sabes bien
G          A       D  RIFF
   Nunca te voy a olvidar 
   
   lo sabes bien
G           A                
   Por que tú has sido y siempree                                             
F#m    Bm   
   Tu seráas... 
G          A              D    RIFF
   La única mujer que voy a amar... 


G        A         D  RIFF
    No te dejé de extrañar 
    
    lo sabes bien
G          A          D  RIFF   
    Que tengo mucho para dar
    
    lo sabes bien
G           A                
    Por que tú has sido y siempree                                           
F#m     Bm     
    Tu seráas... 
G          A              D    
    La única mujer que voy a amar...

D A Bm
     G   A           D    
    La única mujer que voy a amar...

D A Bm
     G   A           D    
    La única mujer que voy a amar...

salida- outro

e|-------2-----------1-------1/2----------------------
B|-----3---3-------2---2-----2/3---------------------- 
G|---2-------2---1-------1---1/2----------------------
D|-0------------0------------0/0----------------------
A|----------------------------------------------------
E|----------------------------------------------------

Riff

e|------3-7/8-7-5-------------------------------------------
B|-5-7-8---------7-7/8-------------------------------------- 
G|----------------------------------------------------------
D|----------------------------------------------------------
A|----------------------------------------------------------
E|----------------------------------------------------------

Esta es toda la canción, no tiene fallas, pero deben escucharla primero 
la canción por que varían los tiempos.

            
            
Suggest correction
Creating personal tab
Creating personal tab
You can edit any tab online and save it as your Personal.

You can edit, replace or remove any tab part or add personal notes – all changes will be seen only by you.

Personal tabs can be accessed anytime from any device, even offline.
Learn more »
Give kudos to tab author, rate the tab!
1 2 3 4 5
comments
print report bad tab
guest
Wanna post a correction for this tab? Suggest correction