Oops, an error
Loading. Please wait.

Tu Carcel tab

by Raices
23 views 1 this week
no commentswrite comment
1 2 3 4 5
3 more votes to show rating
add to favorites
×
Save as Personal and add changes to this tab that will be seen only by you. Learn more ›
×
You can save this tab as Personal to edit and correct it or add notes. All changes will be seen only by you. Learn more »
launch autoscroll
font size
0
reset
how to read this tab
guitar tuner
edit
Autoscroll
slow
fast
+/-
esc
set tempo
stop
[INTRO]
   D                       A
e--7/9-9-7-5--5-5-7-9-9-5-5/7-7-5-4----
B--------------------------------------

               Bm
e--4-4-5-7-7-4-4/5-5-4-2---2-2-2-2-----
B--------------------------------------

        A
e--4-5-4/5-2-4/5-7-7-7-7---------------
B--------------------------------------

[DESDE AQUI CON RASGUEO]

  D                       A
e--7/9-9-7-5--5-5-7-9-9-5-5/7-7-5-4----
B--------------------------------------

               Bm       [Bm,A,G]
e--4-4-5-7-7-4-4/5-5-4-2---------------
B--------------------------------------

        A
e-2-2-2-2--4-5-4/5-2-4/5-7-7-7-7-------
B--------------------------------------


D
Te vas amor si asi lo
           A
quieres que puedo yo hacer
                Bm             G
tu vanidad no te deja entender
                    A
que en la pobreza se sabe querer
D                              A
quiero llorar y me destroza que pienses asi
                   Bm           G
y mas que ahora me quede sin ti
                  A
me duele lo que tu vas a sufrir...


[CORO]

D                                      A
pero recuerda nadie es perfecto y tu lo veras
                  Bm             G
tal ves mil cosas mejores tendras pero cariño
A
sincero jamas...
D                                   A
vete olvidando de esto que dejas y que pagaras
                    Bm         G
por la aventura que tu ya veras sera tu carcel
  A
y nunca saldras...


 D                       A
e--7/9-9-7-5--5-5-7-9-9-5-5/7-7-5-4----
B--------------------------------------

               Bm       [Bm,A,G]
e--4-4-5-7-7-4-4/5-5-4-2---------------
B--------------------------------------

        A
e-2-2-2-2--4-5-4/5-2-4/5-7-7-7-7-------
B--------------------------------------


D                              A
quiero llorar y me destroza que pienses asi
                   Bm           G
y mas que ahora me quede sin ti
                  A
me duele lo que tu vas a sufrir...


[CORO]

D                                      A
pero recuerda nadie es perfecto y tu lo veras
                  Bm             G
tal ves mil cosas mejores tendras pero cariño
A
sincero jamas...
D                                   A
vete olvidando de esto que dejas y que pagaras
                    Bm         G
por la aventura que tu ya veras sera tu carcel
  A
y nunca saldras...

D                                      A
pero recuerda nadie es perfecto y tu lo veras
                  Bm             G
tal ves mil cosas mejores tendras pero cariño
A
sincero jamas...
D                                   A
vete olvidando de esto que dejas y que pagaras
                    Bm         G
por la aventura que tu ya veras sera tu carcel
  A
y nunca saldras...

D                       A
e--7/9-9-7-5--5-5-7-9-9-5-5/7-7-5-4----
B--------------------------------------

               Bm       [Bm,A,G]
e--4-4-5-7-7-4-4/5-5-4-2---------------
B--------------------------------------

        A
e-2-2-2-2--4-5-4/5-2-4/5-7-7-7-7-------
B--------------------------------------

[LUEGO VIENE UN PUNTEADO PARECIDO AL INTRO
 PERO CON ALGUNOS ARREGLOS QUE NO LO SAQUE
 TODAVIA]

KUALQUIER DUDA O SUGERENCIA ME ESCRIBEN A
MI MSN GARY_ALVAREZ2005@

            
            
Suggest correction
Creating personal tab
Creating personal tab
You can edit any tab online and save it as your Personal.

You can edit, replace or remove any tab part or add personal notes – all changes will be seen only by you.

Personal tabs can be accessed anytime from any device, even offline.
Learn more »
Give kudos to tab author, rate the tab!
1 2 3 4 5
comments
print report bad tab
guest
Wanna post a correction for this tab? Suggest correction