Oops, an error
Loading. Please wait.

Alive Tab

version 2
version 2

Whole song

1,657 views 1 this week
no commentswrite comment
1 2 3 4 5
please rate
add to favorites
launch autoscroll
font size
0
reset
how to read this tab
guitar tuner
Autoscroll
slow
fast
+/-
esc
set tempo
stop
Help us to improve Ultimate-Guitar.com Take our survey!
×
Author
---------------------------------------------------------------------------------
                                 RAICO - "ALIVE"
---------------------------------------------------------------------------------
Tabbed by: Thinzar
Email: supersaiyanfan@yahoo.com

Tuning: Standard

Intro: Rap
e|-----------------|-----------------|-----------------|-----------------|
B|-----------------|-----------------|-----------------|-----------------|
G|-----4-----------|-----------------|-----4-----------|-------------4---|
D|---4---4-----4---|-----6-------2---|---4---4-----4---|---2---4---4---4-|
A|-2---------4---4-|---6---6---2---2-|-2---------4---4-|---------2-------|
E|---------2-------|-4-------0-------|---------2-------|-0---2-----------| x2

   1 + 2 + 3 + 4 +


Intro: Solo
e|-----------------|-------7-7h9---7-9-|-9h11---9-7-7h9---7---|-----------------|
B|-----------------|---7-9-------------|--------------------9-|-7-9-------------|
G|/8---6---6-----6-|-8-----------------|----------------------|-----6-8-------6-|
D|-------9-----9---|-------------------|----------------------|---------9--/9---|
A|-----------------|-------------------|----------------------|-----------------|
E|-----------------|-------------------|----------------------|-----------------|

e|-------------------|-------7-7h9---7-9-|-9h11---9-7-7h9---7---|---------------|
B|-------------------|---7-9-------------|--------------------9-|-7-9-----------|
G|-6h8---6---6-----6-|-8-----------------|----------------------|-----6-8-------|
D|---------9-----9---|-------------------|----------------------|---------9-----|
A|-------------------|-------------------|----------------------|---------------|
E|-------------------|-------------------|----------------------|---------------|


Verse 1: Guitar 1
e|-----------------|-----------------|-----------------|-----------------|
B|-----------------|-----------------|-----------------|-----------------|
G|-----4-----------|-----------------|-----4-----------|-------------4---|
D|---4---4-----4---|-----6-------2---|---4---4-----4---|---2---4---4---4-|
A|-2---------4---4-|---6---6---2---2-|-2---------4---4-|---------2-------|
E|---------2-------|-4-------0-------|---------2-------|-0---2-----------| x4

Verse 1: Guitar 2
e|-----------------|---------------9-|\7---------------|-----------------|
B|-----------------|-----------------|-----------------|-----------------|
G|-----------------|-----------------|-----------------|-----------------|
D|-----------------|-----------------|-----------------|-----------------|
A|-----------------|-----------------|-----------------|-----------------|
E|-----------------|-----------------|-----------------|-----------------| x3
                                       1 + 2 + 3 + 4 +   1 + 2 + 3 + 4 +

e|-----------------|---------------9-|\7-------------7-|/11-----\7-------|
B|-----------------|-----------------|-----------------|-----------------|
G|-----------------|-----------------|-----------------|-----------------|
D|-----------------|-----------------|-----------------|-----------------|
A|-----------------|-----------------|-----------------|-----------------|
E|-----------------|-----------------|-----------------|-----------------| x1


Chorus
e|-----------------|-----------------|-----------------|-----------------|
B|-----------------|-----------------|-----------------|-----------------|
G|-4-4-4-4---------|-----------------|-4-4-4-4---------|---------4-4-4-4-|
D|-4-4-4-4-44-44-4-|-6-6-6-6-22-22-2-|-4-4-4-4-44-44-4-|-2-2-4-4-4-4-4-4-|
A|-2-2-2-2-44-44-4-|-6-6-6-6-22-22-2-|-2-2-2-2-44-44-4-|-2-2-4-4-2-2-2-2-|
E|---------22-22-2-|-4-4-4-4-00-00-0-|---------22-22-2-|-0-0-2-2---------|


Interlude
e|-----------------|-----------------|-----------------|-----------------|
B|-----------------|-----------------|-----------------|-----------------|
G|-----4-----------|-----------------|-----4-----------|-------------4---|
D|---4---4-----4---|-----6-------2---|---4---4-----4---|-2---1-----4---4-|
A|-2---------4---4-|---6---6---2---2-|-2---------4---4-|-------4-2-------|
E|---------2-------|-4-------0-------|---------2-------|-----------------|


Verse 2: Guitar 1
e|-----------------|-----------------|-----------------|-----------------|
B|-----------------|-----------------|-----------------|-----------------|
G|-----4-----------|-----------------|-----4-----------|-------------4---|
D|-------4-----4---|-----6-------2---|---4---4-----4---|---2---4---4---4-|
A|-----------4---4-|---6---6---2---2-|-2---------4---4-|---------2-------|
E|---------2-------|-4-------0-------|---------2-------|-0---2-----------|

e|-----------------|-----------------|-----------------|-----------------|
B|-----------------|-----------------|-----------------|-----------------|
G|-----4-----------|-----------------|-----4-----------|-------------4---|
D|---4---4-----4---|-----6-------2---|---4---4-----4---|---2---4---4---4-|
A|-2---------4---4-|---6---6---2---2-|-2---------4---4-|---------2-------|
E|---------2-------|-4-------0-------|---------2-------|-0---2-----------|

e|-----------------|-----------------|-----------------|-----------------|
B|-----------------|-----------------|-----------------|-----------------|
G|-----------------|-----------------|-----4-----------|-------------4---|
D|-------------4---|-------------2---|---4---4-----4---|---2---4---4---4-|
A|-2---------4---4-|-----------2---2-|-2---------4---4-|---------2-------|
E|---------2-------|-4-------0-------|---------2-------|-0---2-----------|

e|-----------------|-----------------|-----------------|-----------------|
B|-----------------|-----------------|-----------------|-----------------|
G|-----4-----------|-----------------|-----4-----------|-------------4---|
D|---4---4-----4---|-----6-------2---|---4---4-----4---|---2---4---4---4-|
A|-2---------4---4-|---6---6---2---2-|-2---------4---4-|---------2-------|
E|---------2-------|-4-------0-------|---------2-------|-0---2-----------|

Verse 2: Guitar 2
e|-----------------|---------------9-|\7---------------|-----------------|
B|-----------------|-----------------|-----------------|-----------------|
G|-----------------|-----------------|-----------------|-----------------|
D|-----------------|-----------------|-----------------|-----------------|
A|-----------------|-----------------|-----------------|-----------------|
E|-----------------|-----------------|-----------------|-----------------| x3
                                       1 + 2 + 3 + 4 +   1 + 2 + 3 + 4 +

e|-----------------|---------------9-|\7-------------7-|/11-----\7-------|
B|-----------------|-----------------|-----------------|-----------------|
G|-----------------|-----------------|-----------------|-----------------|
D|-----------------|-----------------|-----------------|-----------------|
A|-----------------|-----------------|-----------------|-----------------|
E|-----------------|-----------------|-----------------|-----------------| x1


Bridge: Guitar 1
e|-----------------|-----------------|-----------------|-----------------|
B|-----------------|-----------------|-----------------|-----------------|
G|-----------------|-----------------|-----------------|-----------------|
D|-6-6-6-6-6-6-6-6-|-4-4-4-4-4-4-4-4-|-6-6-6-6-6-6-6-6-|-4-4-4-4-4-4-4-4-|
A|-6-6-6-6-6-6-6-6-|-4-4-4-4-4-4-4-4-|-6-6-6-6-6-6-6-6-|-4-4-4-4-4-4-4-4-|
E|-4-4-4-4-4-4-4-4-|-2-2-2-2-2-2-2-2-|-4-4-4-4-4-4-4-4-|-2-2-2-2-2-2-2-2-| x2

e|-----------------|-----------------|-----------------|-----------------|
B|-----------------|-----------------|-----------------|-----------------|
G|-----------------|-----------------|-----------------|-----------------|
D|-6-6-6-6-6-6-6-6-|-4-4-4-4-4-4-4-4-|-2---2---2---2---|-2---2---2---2---|
A|-6-6-6-6-6-6-6-6-|-4-4-4-4-4-4-4-4-|-2---2---2---2---|-2---2---2---2---|
E|-4-4-4-4-4-4-4-4-|-2-2-2-2-2-2-2-2-|-0---0---0---0---|-0---0---0---0---|

e|-----------------|-----------------|
B|-----------------|-----------------|
G|-----------------|-----------------|
D|-4---4---4---4---|-4---------------|
A|-4---4---4---4---|-4---------------|
E|-2---2---2---2---|-2---------------|

Bridge: Guitar 2
e|---6-----6-------|---4-----4-------|---6-----6-------|---4-----4-------|
B|-----9-----9---9-|-----7-----7---7-|-----9-----9---9-|-----7-----7---7-|
G|-8-----8-----8---|-6-----6-----6---|-8-----8-----8---|-6-----6-----6---|
D|-----------------|-----------------|-----------------|-----------------|
A|-----------------|-----------------|-----------------|-----------------|
E|-----------------|-----------------|-----------------|-----------------| x2

e|---6-----6-------|---4-----4-------|-----------------|-----------------|
B|-----9-----9---9-|-----7-----7---7-|-----------------|-----------------|
G|-8-----8-----8---|-6-----6-----6---|-----------------|-----------------|
D|-----------------|-----------------|-----------------|-----------------|
A|-----------------|-----------------|/8---------------|/8-----8--7--8---|
E|-----------------|-----------------|-----------------|-----------------|

e|----------12-11--|/14--------------|
B|---------------12|-----------------|
G|-----------------|-----------------|
D|-----------------|-----------------|
A|-9---------------|-----------------|
E|-----------------|-----------------|


Outro: Chorus
e|-----------------|-----------------|-----------------|-----------------|
B|-----------------|-----------------|-----------------|-----------------|
G|-4-4-4-4---------|-----------------|-4-4-4-4---------|---------4-4-4-4-|
D|-4-4-4-4-44-44-4-|-6-6-6-6-22-22-2-|-4-4-4-4-44-44-4-|-2-2-4-4-4-4-4-4-|
A|-2-2-2-2-44-44-4-|-6-6-6-6-22-22-2-|-2-2-2-2-44-44-4-|-2-2-4-4-2-2-2-2-|
E|---------22-22-2-|-4-4-4-4-00-00-0-|---------22-22-2-|-0-0-2-2---------| x4


Outro: Solo during Rap (comes in on last measure of Outro: Chorus)
e|-----------------|-----------------|-----------------|-----------------|
B|-----------------|-----------------|-----------------|-----------------|
G|-----------------|-----------------|-----------------|---------------6-|
D|-----------------|-----------------|-----------------|-------------9---|
A|-----------------|-----------------|-----------------|-----------------|
E|-----------------|-----------------|-----------------|-----------------|
                                                         1 + 2 + 3 + 4 +

e|-----------------|-------7-7h9---7-9-|-9h11---9-7-7h9---7---|-----------------|
B|-----------------|---7-9-------------|--------------------9-|-7-9-------------|
G|-8---6---6-----6-|-8-----------------|----------------------|-----6-8-------6-|
D|-------9-----9---|-------------------|----------------------|---------9--/9---|
A|-----------------|-------------------|----------------------|-----------------|
E|-----------------|-------------------|----------------------|-----------------|

e|-------------------|-------7-7h9---7-9-|-9h11---9-7-7h9---7---|---------------|
B|-------------------|---7-9-------------|--------------------9-|-7-9-----------|
G|-6h8---6---6-----6-|-8-----------------|----------------------|-----6-8-------|
D|---------9-----9---|-------------------|----------------------|---------9-----|
A|-------------------|-------------------|----------------------|---------------|
E|-------------------|-------------------|----------------------|---------------|


Ending
e|-----------------|-----------------|-----------------|-------------2---|
B|-----------------|-----------------|-----------------|------------4----|
G|-----4-----------|-----------------|-----4-----------|-----------4-----|
D|---4---4-----4---|-----6-------2---|---4---4-----4---|---2---4--4------|
A|-2---------4---4-|---6---6---2---2-|-2---------4---4-|---------2-------|
E|---------2-------|-4-------0-------|---------2-------|-0---2-----------|



| /  slide up
| \  slide down
| h  hammer-on
| p  pull-off
| ~  vibrato
| +  harmonic
| x  Mute note
=================================================================================
Suggest correction
Give kudos to tab author, rate the tab!
1 2 3 4 5
comments
print report bad tab
guest
You may want to rate the tab now too:
select rating
Please do not post tabs as comments. Select "correction" instead!