Oops, an error
Loading. Please wait.

Catch The Rainbow Tab

version 1
version 1

Whole song

Interactive

64,423 views 144 this week
3 commentsread comments
1 2 3 4 5
excellent!
x 13
add to favorites
launch autoscroll
font size
0
reset
how to read this tab
guitar tuner
Autoscroll
slow
fast
+/-
esc
set tempo
stop
Help us to improve Ultimate-Guitar.com Take our survey!
×
Lyrics:


When evening falls
She'll run to me
Like whispered dreams
Your eyes can't see
Soft and warm
She'll touch my face
A bed of straw
Against the lace

#We believed we'd catch the rainbow
Ride the wind to the sun
Sail away on ships of wonder

#But life's not a wheel
With chains made of steel

#So bless me come the dawn
Come the dawn

Guitar 1: Acoustic 
e||------------------------|--------0----------0---------|
B||------------------------|--------0--------0---0-------|
G||------------------------|--------0------4-------4p2-0-|
D||----------0-2-----0-----|--------0--------------------|
A||--------------0-2-------|-----2-----------------------|
E||---------------------3/-|--0--------------------------|

e|-----------3h----------------|-------5--------------------|
B|-----------3-5p3----0h1p0----|-------5--------------------|
G|--0--------------5--------0--|-------5--------5-7-5-7-5-7-|
D|-----------------------------|--7-------------5-7-5-7-5-7-|
A|-----------------------------|------------5h7-------------|
E|-----------------------------|----------------------------|

e|--------7----------0-------|--------------------------|
B|--------8--------0---0---0-|--------------------------|
G|--------7------4-------4---|----------------5-7-5-----|
D|--------9------------------|-------------5--5h7-5-----|
A|--------7------------------|--3------5-7-----------7--|
E|--0--7---------------------|--------------------------|

e|--5--8--10--8--10-8-5--5----|---------------------5-7-5-7-|-----------------|
B|--5--8--10--8--10-8-5--5----|---------------------5-7-5-7-|--8--------------|
G|----------------------------|----7-9-7-9-7-9-7------------|--9--------------|
D|----------------------------|----7-9-7-9-7-9--------------|--10-------------|
A|----------------------------|-----------------------------|-----------------|
E|----------------------------|-----------------------------|-----------------|

e|-------------------|----------3-----------------|-------------------|
B|----------3--------|----------3h5p3----0h1p0----|-------------------|
G|----------0--------|----------------5--------0--|-------------------|
D|----------2--------|----------------------------|----------2--------|
A|----------2--------|----------------------------|-------------------|
E|----------0--------|----------------------------|-------------------|


e|-----------------------|--------------------|------------------|
B|-----------------------|--5--------7--------|------------------|
G|------7-9-7-9-7--------|--5--------7--------|------------------|
D|------7-9-7-9-7--------|--5--------7--------|------------------|
A|-----------------------|--------------------|------------------|
E|-----------------------|--------------------|------------------|

e|----------3--------------|-------------------|-----------------------|
B|----------3h5p3----0-----|-------------------|-----------------------|
G|----------------5-----0--|--2----------------|----------7-9-7-9-7----|
D|-------------------------|-------------------|----------7-9-7-9-7----|
A|-------------------------|-------------------|-----------------------|
E|-------------------------|-------------------|-----------------------|


e|------------12--------|------------------|------------------|---------------|
B|------------12--------|------------------|------------------|---------------|
G|--7-9-------12--------|------------------|------------------|---------------|
D|--7-9-----------------|------------------|------------------|---------------|
A|----------------------|------------------|------------------|---------------|
E|----------------------|------------------|------------------|---------------|

  ]
e|------------------0------|----------------------|------------------|
B|------8-7-8-7-8-7--------|------5--8--10--------|------------------|
G|-------------------------|----------------------|------------------|
D|-------------------------|----------------------|------------------|
A|-------------------------|----------------------|------------------|
E|-------------------------|----------------------|------------------|


e|------------------3--|----------------------|----------------------|
B|---------------3-----|--5----------3--------|----------------------|
G|------------4--------|----------------4-2---|--4----------4--2--0--|
D|---------------------|----------------------|----------------------|
A|---------------------|----------------------|----------------------|
E|---------------------|----------------------|----------------------|

e|-------------------------|---------------------3--|-----------------------|
B|-------------------------|------------------3-----|--5----------3---------|
G|--2----------4-2-4-2-4-2-|--4-2-0-----------------|----------------4-2-0--|
D|-------------------------|---------2/-------------|-----------------------|
A|-------------------------|------------------------|-----------------------|
E|-------------------------|------------------------|-----------------------|

e|----------------------|-------5------7--5--3--|---------------------|
B|----------------------|-----------------------|--5------------5--7--|
G|--4----------4--2--0--|--2/-------------------|---------------------|
D|----------------------|-----------------------|---------------------|
A|----------------------|-----------------------|---------------------|
E|----------------------|-----------------------|---------------------|

e|-------------5--7--10--|--12~---------14--15--17--|--12----7~-----------10--|
B|--8~-------------------|--------------------------|-----------------10------|
G|-----------------------|--------------------------|-------------------------|
D|-----------------------|--------------------------|-------------------------|
A|-----------------------|--------------------------|-------------------------|
E|-----------------------|--------------------------|-------------------------|

e|--12~-----------------|------------------|------------------|---------------|
B|------------12~-------|------------------|------------------|---------------|
G|----------------------|------------------|------------------|---------------|
D|----------------------|------------------|------------------|---------------|
A|----------------------|------------------|------------------|---------------|
E|----------------------|------------------|------------------|---------------|

e|------------------0------|----------------------|------------------|
B|------8-7-8-7-8-7--------|------5--8--10--------|------------------|
G|-------------------------|----------------------|------------------|
D|-------------------------|----------------------|------------------|
A|-------------------------|----------------------|------------------|
E|-------------------------|----------------------|------------------|

e|------------------|------------------|------------------------|
B|------------------|------------------|--5--------5--7--8--10--|
G|------------------|------------------|------------------------|
D|------------------|------------------|------------------------|
A|------------------|------------------|------------------------|
E|------------------|------------------|------------------------|

e|----------------------|------------------|------------------|
B|--12----10~-----------|------------------|------------------|
G|----------------------|------------------|------------------|
D|----------------------|------------------|------------------|
A|----------------------|------------------|------------------|
E|----------------------|------------------|------------------|

e|------------------------|---------------------|------------------|
B|--5--------5--7--8--10--|--12----5~-----------|------------------|
G|------------------------|---------------------|------------------|
D|------------------------|---------------------|------------------|
A|------------------------|---------------------|------------------|
E|------------------------|---------------------|------------------|

e|------------------|------------------------|---------------------|
B|------------------|--5--------5--7--8--10--|--12----5~-----------|
G|------------------|------------------------|---------------------|
D|------------------|------------------------|---------------------|
A|------------------|------------------------|---------------------|
E|------------------|------------------------|---------------------|

e|----------------------|--------------------|------------------------|
B|--8----------7--5--3--|--5------------3----|--5--------5--7--8--10--|
G|----------------------|--------------------|------------------------|
D|----------------------|--------------------|------------------------|
A|----------------------|--------------------|------------------------|
E|----------------------|--------------------|------------------------|

e|------------------------|--------------------------|--------------------|
B|--12----5--------8--10--|--10--12----------10--12--|--8~-----------6----|
G|------------------------|--------------------------|--------------------|
D|------------------------|--------------------------|--------------------|
A|------------------------|--------------------------|--------------------|
E|------------------------|--------------------------|--------------------|

e|------------------------|-----------------7--10--|--12----12~-------14--15--|
B|--5--------5--7--8--10--|--12----5---------------|--------------------------|
G|------------------------|------------------------|--------------------------|
D|------------------------|------------------------|--------------------------|
A|------------------------|------------------------|--------------------------|
E|------------------------|------------------------|--------------------------|

e|--15~-------14--15--14-15-14-15-|--0----------------------|
B|--------------------------------|--17--------5--7--8--10--|
G|--------------------------------|-------------------------|
D|--------------------------------|-------------------------|
A|--------------------------------|-------------------------|
E|--------------------------------|-------------------------|

e|---------------------|-------------------------|--8--------8--7--8--10--|
B|--12----5------------|--12--------11--8--7--8--|------------------------|
G|---------------------|-------------------------|------------------------|
D|---------------------|-------------------------|------------------------|
A|---------------------|-------------------------|------------------------|
E|---------------------|-------------------------|------------------------|

e|--0----------------------|---------------------|--12------14--15~-------|
B|--17--------5--7--8--10--|--12----5------------|------------------------|
G|-------------------------|---------------------|------------------------|
D|-------------------------|---------------------|------------------------|
A|-------------------------|---------------------|------------------------|
E|-------------------------|---------------------|------------------------|

e|--15~-------13--14--15--17--|--0----------------------|---------------------|
B|----------------------------|--17--------5--7--8--10--|--12----5------------|
G|----------------------------|-------------------------|---------------------|
D|----------------------------|-------------------------|---------------------|
A|----------------------------|-------------------------|---------------------|
E|----------------------------|-------------------------|---------------------|

e|--12------10--8--7--5--7--|--8~-------7--5--3--5--|------------------------|
B|--------------------------|-----------------------|--5--------5--7--8--10--|
G|--------------------------|-----------------------|------------------------|
D|--------------------------|-----------------------|------------------------|
A|--------------------------|-----------------------|------------------------|
E|--------------------------|-----------------------|------------------------|


e|---------------------|--12~-----11--12--11--12--11--|--8--------7--8--10----|
B|--12----5------------|------------------------------|-----------------------|
G|---------------------|------------------------------|-----------------------|
D|---------------------|------------------------------|-----------------------|
A|---------------------|------------------------------|-----------------------|
E|---------------------|------------------------------|-----------------------|

e|--0----------------------|---------------------12----|--15--------15--------|
B|--12--------5--7--8--10--|--12----5--------12-----12-|--------------------4-|
G|-------------------------|---------------------------|----------------------|
D|-------------------------|---------------------------|----------------------|
A|-------------------------|---------------------------|----------------------|
E|-------------------------|---------------------------|----------------------|

e|--15--14-15-17--15-17-19--17-15-17--15--14--|--0----------------------|
B|--------------------------------------------|--20--------5--7--8--10--|
G|--------------------------------------------|-------------------------|
D|--------------------------------------------|-------------------------|
A|--------------------------------------------|-------------------------|
E|--------------------------------------------|-------------------------|

e|---------------------|--14----12--10--8--7--5--7--|--8~-------8--7--5--7--|
B|--12----5------------|----------------------------|-----------------------|
G|---------------------|----------------------------|-----------------------|
D|---------------------|----------------------------|-----------------------|
A|---------------------|----------------------------|-----------------------|
E|---------------------|----------------------------|-----------------------|

e|-------------------||
B|--5----------------||
G|-------------------||
D|-------------------||
A|-------------------||
E|-------------------||

Guitar 2: Electric Guitar

Em7 G 
e||------------------|----------7--------|-------------3-----------|
B||------------------|----------8--------|----------------3--------|
G||------------------|----------7--------|----------0--------4-----|
D||------------------|----------9--------|-------5--------------5--|
A||------------------|----------7--------|-------------------------|
E||------------------|-------------------|----3--------------------|

  Am C Em G C 
e|--------5-------------|--------------3---------|--------------------12----|
B|--------5----1--------|-----------0--5----0----|-----------------1--------|
G|--------5----0--------|--------0-----4----0----|--------0-----0-----------|
D|--------7----2--------|-------------------0----|-----2-----2--------------|
A|-----7-------3--------|-----2------------------|--3-----------------------|
E|--5-------------------|--0---------------------|--------------------------|

  Am Em7 D C 
e|-----------------------------|-----0-------------------|-------------------|
B|--------1--------5--3h4p3----|-----0-----------3-5-3---|-------------------|
G|--------2----2p0-5--------2--|-----0-----------------2-|-------------------|
D|-----2-----------------------|-----0------0------------|--2----------------|
A|--0--------------------------|-----2-------------------|-------------------|
E|-----------------------------|--0----------------------|-------------------|

  Em G 
e|--------------12-----------|--------------3-----------|
B|--------------12--0--------|--------------3--3--------|
G|-----------0--12-----0-----|-----------0--------4-----|
D|--------2------------------|--------5--------------5--|
A|-----2---------------------|-----5--------------------|
E|--0---------------------0--|--3-----------------------|

  Am C Em D C D 
e|--------------------------|-------------------3p2-----|--------------2------|
B|--------------------------|-----------------------3---|--------------3------|
G|-----------5--------------|----------------2--------2-|--------0-----2------|
D|--------7-----------------|--------2----0-------------|-----2-----2--0------|
A|-----7--------7-----------|-----2---------------------|--3------------------|
E|--5----------------8--7-5-|--0------------------------|---------------------|

  Em G 
e|--------------12-----------|--------------3-----------|
B|--------------12--0--------|--------------3--3--------|
G|-----------0--12-----0-----|-----------0--------0-----|
D|--------2------------------|--------5--------------5--|
A|-----2---------------------|-----5--------------------|
E|--0---------------------0--|--3-----------------------|

  Am C Em D 
e|---------------------------|-------------------3p2-----|
B|---------------------------|----------------3------3---|
G|-----------5---------------|-------------2-----------2-|
D|--------7----------10------|--------2------------------|
A|-----7--------7----10------|-----2---------------------|
E|--5----------------8---7-5-|--0------------------------|

  Em Am Em 
e|--------------0----------|--------------0-----------|--------------0--------|
B|--------------0----------|-----------1-----1--------|-----------0-----0-----|
G|-----------0-------------|--------2-----------2-----|--------0-----------0--|
D|--------2----------------|-----2-----------------2--|-----2-----------------|
A|-----2-------------------|--0-----------------------|-----------------------|
E|--0----------------0--3--|--------------------------|--0--------------------|

  D A Em 
e|--------------------------|--------------0-----------|
B|--------3-----------2-----|-----------0-----0--------|
G|-----2-----2-----2-----2--|--------0-----------0-----|
D|--0-----------0-----------|-----2-----------------2--|
A|--------------------------|--------------------------|
E|--------------------------|--0-----------------------|

  Am Em 
e|--------------0-----------|--------------0-----------|
B|-----------1-----1--------|-----------0-----0--------|
G|--------2-----------2-----|--------0-----------0-----|
D|-----2-----------------2--|-----2--------------------|
A|--0-----------------------|-----------------------2--|
E|--------------------------|--0-----------------------|

  C B7 C D D Em 
e|--------------------------|--------------------------|----------------------|
B|--------1-----------4-----|--------1-----------3-----|----------------------|
G|-----0-----0-----2-----2--|-----0-----0-----2-----2--|----------------------|
D|--------------------------|--------------0-----------|--0--2----------2--0--|
A|--3-----------2-----------|--1-----------------------|----------------------|
E|--------------------------|--------------------------|----------------------|

  Am Em 
e|--------------0-----------|--------------0-----------|
B|-----------1-----1--------|-----------0-----0--------|
G|--------2-----------2-----|--------0-----------0-----|
D|-----2-----------------2--|-----2--------------------|
A|--0-----------------------|-----------------------2--|
E|--------------------------|--0-----------------------|

  C Em D C 
e|--------------0-----------|--------------0-----------|--------2-------------|
B|-----------1-----1--------|-----------0-----0--------|--------3-------------|
G|--------0-----------0-----|--------0-----------0-----|-----2-------------0--|
D|-----2-----------------2--|-----2--------------------|--0-------------2----2|
A|--3-----------------------|-----------------------2--|-------------3--------|
E|--------------------------|--0-----------------------|----------------------|

  D Em G 
e|--------------2--------|--------------0-----------|--------------3----------|
B|--------3-----3--------|-----------0-----0--------|-----------------3-------|
G|-----2-----2--2--------|--------0-----------0-----|-----------0--------4----|
D|--0-----------0--------|-----2--------------------|--------5--------------5-|
A|-----------------------|-----------------------2--|-----5-------------------|
E|-----------------------|--0-----------------------|--3----------------------|

  Am C Em D Em 
e|----------------------|------------------------|--------------0-----------|
B|----------------------|------------------3-----|--------0--------0--------|
G|----------------------|---------------2-----2--|-----0-----0--------0-----|
D|----------------------|-------2----0-----------|-----------------------2--|
A|--0------2--3------2--|------------------------|--------------------------|
E|----------------------|--0---------------------|--0-----------------------|

  G Am C Em 
e|--------------3-----------|----------------------|-------------------------|
B|-----------------3--------|----------------------|-------------------------|
G|-----------0--------4-----|----------------------|--------0----------------|
D|--------5--------------5--|----------------------|-----2-----2-------2--0--|
A|-----5--------------------|--0------2--3------2--|--------------2----------|
E|--3-----------------------|----------------------|--0----------------------|

  C Am 
e|--------------------------|--------------0-----------|
B|--------------1-----------|-----------1-----1--------|
G|--------0--------0--------|--------2-----------2-----|
D|-----2-----2--------2-----|-----2-----------------2--|
A|--3--------------------3--|--0-----------------------|
E|--------------------------|--------------------------|

  Em D Em 
e|--------------------------|--------0-----0-----------|
B|-----------0--------3-----|--------0--------0--------|
G|--------0--------2-----2--|--------0--0--------0-----|
D|-----2--------0-----------|-----2-----------------2--|
A|--------------------------|--------------------------|
E|--0-----------------------|--0-----------------------|

  Am Em 
e|--------------0-----------|--------------0-----------|
B|-----------1-----1--------|-----------0-----0--------|
G|--------2-----------2-----|--------0-----------0-----|
D|-----2-----------------2--|-----2-----------------2--|
A|--0-----------------------|--------------------------|
E|--------------------------|--0-----------------------|

  D A Em 
e|--------------------------|--------------0-----------|
B|--------3-----------2-----|-----------0-----0--------|
G|-----2-----2-----2-----2--|--------0-----------0-----|
D|--0-----------0-----------|-----2-----------------2--|
A|--------------------------|--------------------------|
E|--------------------------|--0-----------------------|

  Am Em 
e|--------------0-----------|--------------0-----------|
B|-----------1-----1--------|-----------0-----0--------|
G|--------2-----------2-----|--------0-----------0-----|
D|-----2-----------------2--|-----2--------------------|
A|--0-----------------------|-----------------------2--|
E|--------------------------|--0-----------------------|
 
  C B7 C D D Em Em Em 
e|--------------------------|--------------------------|--5--7------7----7----|
B|--------1-----------4-----|--------1-----------3-----|--7--8------8----8----|
G|-----0-----0-----2-----2--|-----0-----0-----2-----2--|--7--9------9----9----|
D|--------------------------|--------------0-----------|--7--9------9----9----|
A|--3-----------2-----------|--1-----------------------|--5--7------7----7----|
E|--------------------------|--------------------------|-----0------0----0----|

  G Am Am Am D Em Em Em Am Am Am Am 
e|--3--5------5----5----|--5--7------7----7----|--5----5----5----5----|
B|--3--5------5----5----|--7--8------8----8----|--5----5----5----5----|
G|--4--5------5----5----|--7--9------9----9----|--5----5----5----5----|
D|--5--7------7----7----|--7--9------9----9----|--7----7----7----7----|
A|--5--7------7----7----|--5--7------7----7----|--7----7----7----7----|
E|--3--5------5----5----|-----0------0----0----|--5----5----5----5----|

  Em C Em 
e|-------------------------|--------------------------|--------------0--------|
B|-------------------------|--------------1-----------|-----------0-----0-----|
G|--------0----------------|--------0--------0--------|--------0-----------0--|
D|-----2-----2-------2--0--|-----2-----2--------2-----|-----2----------------2|
A|--------------2----------|--3--------------------3--|-----------------------|
E|--0----------------------|--------------------------|--0--------------------|

  Am Em Em Em Em C 
e|--------------0-----------|--7----7----7----7----|--------------------------|
B|-----------1-----1--------|--8----8----8----8----|--------------1-----------|
G|--------2-----------2-----|--9----9----9----9----|--------0--------0--------|
D|-----2-----------------2--|--9----9----9----9----|-----2-----2--------2-----|
A|--0-----------------------|--7----7----7----7----|--3--------------------3--|
E|--------------------------|--0----0----0----0----|--------------------------|

  Em Am Em 
e|--------------0-----------|--------------0-----------|----------------------|
B|-----------0-----0--------|-----------1-----1--------|----------------------|
G|--------0-----------0-----|--------2-----------2-----|--------0-------------|
D|-----2-----------------2--|-----2-----------------2--|-----2-----2-------2-0|
A|--------------------------|--0-----------------------|--------------2-------|
E|--0-----------------------|--------------------------|--0-------------------|

  C Em 
e|--------------------------|--------------0-----------|
B|--------------1-----------|-----------0-----0--------|
G|--------0--------0--------|--------0-----------0-----|
D|-----2-----2--------2-----|-----2-----------------2--|
A|--3--------------------3--|--------------------------|
E|--------------------------|--0-----------------------|

  Am Em Em Em Em Am 
e|--------------0-----------|--7----7----7----7----|--------------0-----------|
B|-----------1-----1--------|--8----8----8----8----|-----------1-----1--------|
G|--------2-----------2-----|--9----9----9----9----|--------2-----------2-----|
D|-----2-----------------2--|--9----9----9----9----|-----2-----------------2--|
A|--0-----------------------|--7----7----7----7----|--0-----------------------|
E|--------------------------|--0----0----0----0----|--------------------------|

  Em Am Em 
e|-------------------------|--------------0-----------|-----------------------|
B|-------------------------|-----------1-----1--------|-----------------------|
G|--------0----------------|--------2-----------2-----|--------0--------------|
D|-----2-----2-------2--0--|-----2-----------------2--|-----2-----2-------2--0|
A|--------------2----------|--0-----------------------|--------------2--------|
E|--0----------------------|--------------------------|--0--------------------|

  Am Em Am 
e|--------------0-----------|-------------------------|--------------0--------|
B|-----------1-----1--------|-------------------------|-----------1-----1-----|
G|--------2-----------2-----|--------0----------------|--------2-----------2--|
D|-----2-----------------2--|-----2-----2-------2--0--|-----2----------------2|
A|--0-----------------------|--------------2----------|--0--------------------|
E|--------------------------|--0----------------------|-----------------------|


  Em Am Em Em Em Em 
e|-------------------------|--------------0-----------|--7----7----7----7----|
B|-------------------------|-----------1-----1--------|--8----8----8----8----|
G|--------0----------------|--------2-----------2-----|--9----9----9----9----|
D|-----2-----2-------2--0--|-----2-----------------2--|--9----9----9----9----|
A|--------------2----------|--0-----------------------|--7----7----7----7----|
E|--0----------------------|--------------------------|--0----0----0----0----|

  Am Em Am 
e|--------------0-----------|-------------------------|--------------0--------|
B|-----------1-----1--------|-------------------------|-----------1-----1-----|
G|--------2-----------2-----|--------0----------------|--------2-----------2--|
D|-----2-----------------2--|-----2-----2-------2--0--|-----2----------------2|
A|--0-----------------------|--------------2----------|--0--------------------|
E|--------------------------|--0----------------------|-----------------------|

  Em Am Em 
e|-------------------------|--------------0-----------|-----------------------|
B|-------------------------|-----------1-----1--------|-----------------------|
G|--------0----------------|--------2-----------2-----|--------0--------------|
D|-----2-----2-------2--0--|-----2-----------------2--|-----2-----2-------2--0|
A|--------------2----------|--0-----------------------|--------------2--------|
E|--0----------------------|--------------------------|--0--------------------|

  Am Em Am 
e|--------------0-----------|-------------------------|--------------0--------|
B|-----------1-----1--------|-------------------------|-----------1-----1-----|
G|--------2-----------2-----|--------0----------------|--------2-----------2--|
D|-----2-----------------2--|-----2-----2-------2--0--|-----2----------------2|
A|--0-----------------------|--------------2----------|--0--------------------|
E|--------------------------|--0----------------------|-----------------------|

  Em Em Em Em Am Em 
e|--7----7----7----7----|--------------0-----------|-------------------------|
B|--8----8----8----8----|-----------1-----1--------|-------------------------|
G|--9----9----9----9----|--------2-----------2-----|--------0----------------|
D|--9----9----9----9----|-----2-----------------2--|-----2-----2-------2--0--|
A|--7----7----7----7----|--0-----------------------|--------------2----------|
E|--0----0----0----0----|--------------------------|--0----------------------|



  Am Em Am 
e|--------------0-----------|-------------------------|--------------0--------|
B|-----------1-----1--------|-------------------------|-----------1-----1-----|
G|--------2-----------2-----|--------0----------------|--------2-----------2--|
D|-----2-----------------2--|-----2-----2-------2--0--|-----2----------------2|
A|--0-----------------------|--------------2----------|--0--------------------|
E|--------------------------|--0----------------------|-----------------------|

  Em Am Em 
e|-------------------------|--------------0-----------|-----------------------|
B|-------------------------|-----------1-----1--------|-----------------------|
G|--------0----------------|--------2-----------2-----|--------0--------------|
D|-----2-----2-------2--0--|-----2-----------------2--|-----2-----2-------2--0|
A|--------------2----------|--0-----------------------|--------------2--------|
E|--0----------------------|--------------------------|--0--------------------|

  Am Em Em Em Em Am 
e|--------------0-----------|--7----7----7----7----|--------------0-----------|
B|-----------1-----1--------|--8----8----8----8----|-----------1-----1--------|
G|--------2-----------2-----|--9----9----9----9----|--------2-----------2-----|
D|-----2-----------------2--|--9----9----9----9----|-----2-----------------2--|
A|--0-----------------------|--7----7----7----7----|--0-----------------------|
E|--------------------------|--0----0----0----0----|--------------------------|

  Em Am Em 
e|-------------------------|--------------0-----------|-----------------------|
B|-------------------------|-----------1-----1--------|-----------------------|
G|--------0----------------|--------2-----------2-----|--------0--------------|
D|-----2-----2-------2--0--|-----2-----------------2--|-----2-----2-------2--0|
A|--------------2----------|--0-----------------------|--------------2--------|
E|--0----------------------|--------------------------|--0--------------------|

  Am Em 
e|--------------0-----------|-------------------------||
B|-----------1-----1--------|-------------------------||
G|--------2-----------2-----|--------0----------------||
D|-----2-----------------2--|-----2-----2-------2--0--||
A|--0-----------------------|--------------2----------||
E|--------------------------|--0----------------------||

Em7 G 
e|E||------------------|----------7--------|-------------3-----------|
B||------------------|----------8--------|----------------3--------|
G||------------------|----------7--------|----------0--------4-----|
D||------------------|----------9--------|-------5--------------5--|
A||------------------|----------7--------|-------------------------|
E||------------------|-------------------|----3--------------------|

  Am C Em G C 
e|--------5-------------|--------------3---------|--------------------12----|
B|--------5----1--------|-----------0--5----0----|-----------------1--------|
G|--------5----0--------|--------0-----4----0----|--------0-----0-----------|
D|--------7----2--------|-------------------0----|-----2-----2--------------|
A|-----7-------3--------|-----2------------------|--3-----------------------|
E|--5-------------------|--0---------------------|--------------------------|

  Am Em7 D C 
e|-----------------------------|-----0-------------------|-------------------|
B|--------1--------5--3h4p3----|-----0-----------3-5-3---|-------------------|
G|--------2----2p0-5--------2--|-----0-----------------2-|-------------------|
D|-----2-----------------------|-----0------0------------|--2----------------|
A|--0--------------------------|-----2-------------------|-------------------|
E|-----------------------------|--0----------------------|-------------------|

  Em G 
e|--------------12-----------|--------------3-----------|
B|--------------12--0--------|--------------3--3--------|
G|-----------0--12-----0-----|-----------0--------4-----|
D|--------2------------------|--------5--------------5--|
A|-----2---------------------|-----5--------------------|
E|--0---------------------0--|--3-----------------------|

  Am C Em D C D 
e|--------------------------|-------------------3p2-----|--------------2------|
B|--------------------------|-----------------------3---|--------------3------|
G|-----------5--------------|----------------2--------2-|--------0-----2------|
D|--------7-----------------|--------2----0-------------|-----2-----2--0------|
A|-----7--------7-----------|-----2---------------------|--3------------------|
E|--5----------------8--7-5-|--0------------------------|---------------------|

  Em G 
e|--------------12-----------|--------------3-----------|
B|--------------12--0--------|--------------3--3--------|
G|-----------0--12-----0-----|-----------0--------0-----|
D|--------2------------------|--------5--------------5--|
A|-----2---------------------|-----5--------------------|
E|--0---------------------0--|--3-----------------------|

  Am C Em D 
e|---------------------------|-------------------3p2-----|
B|---------------------------|----------------3------3---|
G|-----------5---------------|-------------2-----------2-|
D|--------7----------10------|--------2------------------|
A|-----7--------7----10------|-----2---------------------|
E|--5----------------8---7-5-|--0------------------------|

  Em Am Em 
e|--------------0----------|--------------0-----------|--------------0--------|
B|--------------0----------|-----------1-----1--------|-----------0-----0-----|
G|-----------0-------------|--------2-----------2-----|--------0-----------0--|
D|--------2----------------|-----2-----------------2--|-----2----------------2|
A|-----2-------------------|--0-----------------------|-----------------------|
E|--0----------------0--3--|--------------------------|--0--------------------|

  D A Em 
e|--------------------------|--------------0-----------|
B|--------3-----------2-----|-----------0-----0--------|
G|-----2-----2-----2-----2--|--------0-----------0-----|
D|--0-----------0-----------|-----2-----------------2--|
A|--------------------------|--------------------------|
E|--------------------------|--0-----------------------|

  Am Em 
e|--------------0-----------|--------------0-----------|
B|-----------1-----1--------|-----------0-----0--------|
G|--------2-----------2-----|--------0-----------0-----|
D|-----2-----------------2--|-----2--------------------|
A|--0-----------------------|-----------------------2--|
E|--------------------------|--0-----------------------|

  C B7 C D D Em 
e|--------------------------|--------------------------|----------------------|
B|--------1-----------4-----|--------1-----------3-----|----------------------|
G|-----0-----0-----2-----2--|-----0-----0-----2-----2--|----------------------|
D|--------------------------|--------------0-----------|--0--2----------2--0--|
A|--3-----------2-----------|--1-----------------------|----------------------|
E|--------------------------|--------------------------|----------------------|

  Am Em 
e|--------------0-----------|--------------0-----------|
B|-----------1-----1--------|-----------0-----0--------|
G|--------2-----------2-----|--------0-----------0-----|
D|-----2-----------------2--|-----2--------------------|
A|--0-----------------------|-----------------------2--|
E|--------------------------|--0-----------------------|

  C Em D C 
e|--------------0-----------|--------------0-----------|--------2-------------|
B|-----------1-----1--------|-----------0-----0--------|--------3-------------|
G|--------0-----------0-----|--------0-----------0-----|-----2-------------0--|
D|-----2-----------------2--|-----2--------------------|--0-------------2----2|
A|--3-----------------------|-----------------------2--|-------------3--------|
E|--------------------------|--0-----------------------|----------------------|

  D Em G 
e|--------------2--------|--------------0-----------|--------------3----------|
B|--------3-----3--------|-----------0-----0--------|-----------------3-------|
G|-----2-----2--2--------|--------0-----------0-----|-----------0--------4----|
D|--0-----------0--------|-----2--------------------|--------5--------------5-|
A|-----------------------|-----------------------2--|-----5-------------------|
E|-----------------------|--0-----------------------|--3----------------------|

  Am C Em D Em 
e|----------------------|------------------------|--------------0-----------|
B|----------------------|------------------3-----|--------0--------0--------|
G|----------------------|---------------2-----2--|-----0-----0--------0-----|
D|----------------------|-------2----0-----------|-----------------------2--|
A|--0------2--3------2--|------------------------|--------------------------|
E|----------------------|--0---------------------|--0-----------------------|

  G Am C Em 
e|--------------3-----------|----------------------|-------------------------|
B|-----------------3--------|----------------------|-------------------------|
G|-----------0--------4-----|----------------------|--------0----------------|
D|--------5--------------5--|----------------------|-----2-----2-------2--0--|
A|-----5--------------------|--0------2--3------2--|--------------2----------|
E|--3-----------------------|----------------------|--0----------------------|

  C Am 
e|--------------------------|--------------0-----------|
B|--------------1-----------|-----------1-----1--------|
G|--------0--------0--------|--------2-----------2-----|
D|-----2-----2--------2-----|-----2-----------------2--|
A|--3--------------------3--|--0-----------------------|
E|--------------------------|--------------------------|

  Em D Em 
e|--------------------------|--------0-----0-----------|
B|-----------0--------3-----|--------0--------0--------|
G|--------0--------2-----2--|--------0--0--------0-----|
D|-----2--------0-----------|-----2-----------------2--|
A|--------------------------|--------------------------|
E|--0-----------------------|--0-----------------------|

  Am Em 
e|--------------0-----------|--------------0-----------|
B|-----------1-----1--------|-----------0-----0--------|
G|--------2-----------2-----|--------0-----------0-----|
D|-----2-----------------2--|-----2-----------------2--|
A|--0-----------------------|--------------------------|
E|--------------------------|--0-----------------------|

  D A Em 
e|--------------------------|--------------0-----------|
B|--------3-----------2-----|-----------0-----0--------|
G|-----2-----2-----2-----2--|--------0-----------0-----|
D|--0-----------0-----------|-----2-----------------2--|
A|--------------------------|--------------------------|
E|--------------------------|--0-----------------------|

  Am Em 
e|--------------0-----------|--------------0-----------|
B|-----------1-----1--------|-----------0-----0--------|
G|--------2-----------2-----|--------0-----------0-----|
D|-----2-----------------2--|-----2--------------------|
A|--0-----------------------|-----------------------2--|
E|--------------------------|--0-----------------------|

  C B7 C D D Em Em Em 
e|--------------------------|--------------------------|--5--7------7----7----|
B|--------1-----------4-----|--------1-----------3-----|--7--8------8----8----|
G|-----0-----0-----2-----2--|-----0-----0-----2-----2--|--7--9------9----9----|
D|--------------------------|--------------0-----------|--7--9------9----9----|
A|--3-----------2-----------|--1-----------------------|--5--7------7----7----|
E|--------------------------|--------------------------|-----0------0----0----|

  G Am Am Am D Em Em Em Am Am Am Am 
e|--3--5------5----5----|--5--7------7----7----|--5----5----5----5----|
B|--3--5------5----5----|--7--8------8----8----|--5----5----5----5----|
G|--4--5------5----5----|--7--9------9----9----|--5----5----5----5----|
D|--5--7------7----7----|--7--9------9----9----|--7----7----7----7----|
A|--5--7------7----7----|--5--7------7----7----|--7----7----7----7----|
E|--3--5------5----5----|-----0------0----0----|--5----5----5----5----|

  Em C Em 
e|-------------------------|--------------------------|--------------0--------|
B|-------------------------|--------------1-----------|-----------0-----0-----|
G|--------0----------------|--------0--------0--------|--------0-----------0--|
D|-----2-----2-------2--0--|-----2-----2--------2-----|-----2----------------2|
A|--------------2----------|--3--------------------3--|-----------------------|
E|--0----------------------|--------------------------|--0--------------------|

  Am Em Em Em Em C 
e|--------------0-----------|--7----7----7----7----|--------------------------|
B|-----------1-----1--------|--8----8----8----8----|--------------1-----------|
G|--------2-----------2-----|--9----9----9----9----|--------0--------0--------|
D|-----2-----------------2--|--9----9----9----9----|-----2-----2--------2-----|
A|--0-----------------------|--7----7----7----7----|--3--------------------3--|
E|--------------------------|--0----0----0----0----|--------------------------|


  Em Am Em 
e|--------------0-----------|--------------0-----------|----------------------|
B|-----------0-----0--------|-----------1-----1--------|----------------------|
G|--------0-----------0-----|--------2-----------2-----|--------0-------------|
D|-----2-----------------2--|-----2-----------------2--|-----2-----2-------2-0|
A|--------------------------|--0-----------------------|--------------2-------|
E|--0-----------------------|--------------------------|--0-------------------|

  C Em 
e|--------------------------|--------------0-----------|
B|--------------1-----------|-----------0-----0--------|
G|--------0--------0--------|--------0-----------0-----|
D|-----2-----2--------2-----|-----2-----------------2--|
A|--3--------------------3--|--------------------------|
E|--------------------------|--0-----------------------|

  Am Em Em Em Em Am 
e|--------------0-----------|--7----7----7----7----|--------------0-----------|
B|-----------1-----1--------|--8----8----8----8----|-----------1-----1--------|
G|--------2-----------2-----|--9----9----9----9----|--------2-----------2-----|
D|-----2-----------------2--|--9----9----9----9----|-----2-----------------2--|
A|--0-----------------------|--7----7----7----7----|--0-----------------------|
E|--------------------------|--0----0----0----0----|--------------------------|


  Em Am Em 
e|-------------------------|--------------0-----------|-----------------------|
B|-------------------------|-----------1-----1--------|-----------------------|
G|--------0----------------|--------2-----------2-----|--------0--------------|
D|-----2-----2-------2--0--|-----2-----------------2--|-----2-----2-------2--0|
A|--------------2----------|--0-----------------------|--------------2--------|
E|--0----------------------|--------------------------|--0--------------------|


  Am Em Am 
e|--------------0-----------|-------------------------|--------------0--------|
B|-----------1-----1--------|-------------------------|-----------1-----1-----|
G|--------2-----------2-----|--------0----------------|--------2-----------2--|
D|-----2-----------------2--|-----2-----2-------2--0--|-----2----------------2|
A|--0-----------------------|--------------2----------|--0--------------------|
E|--------------------------|--0----------------------|-----------------------|


  Em Am Em Em Em Em 
e|-------------------------|--------------0------------|--7----7----7----7----|
B|-------------------------|-----------1-----1---------|--8----8----8----8----|
G|--------0----------------|--------2-----------2------|--9----9----9----9----|
D|-----2-----2-------2--0--|-----2----------------2----|--9----9----9----9----|
A|--------------2----------|--0------------------------|--7----7----7----7----|
E|--0----------------------|---------------------------|--0----0----0----0----|


  Am Em Am 
e|--------------0-----------|-------------------------|--------------0--------|
B|-----------1-----1--------|-------------------------|-----------1-----1-----|
G|--------2-----------2-----|--------0----------------|--------2-----------2--|
D|-----2-----------------2--|-----2-----2-------2--0--|-----2----------------2|
A|--0-----------------------|--------------2----------|--0--------------------|
E|--------------------------|--0----------------------|-----------------------|

  Em Am Em 
e|-------------------------|--------------0-----------|-----------------------|
B|-------------------------|-----------1-----1--------|-----------------------|
G|--------0----------------|--------2-----------2-----|--------0--------------|
D|-----2-----2-------2--0--|-----2-----------------2--|-----2-----2-------2--0|
A|--------------2----------|--0-----------------------|--------------2--------|
E|--0----------------------|--------------------------|--0--------------------|

  Am Em Am
e|--------------0-----------|-------------------------|--------------0--------|
B|-----------1-----1--------|-------------------------|-----------1-----1-----|
G|--------2-----------2-----|--------0----------------|--------2-----------2--|
D|-----2-----------------2--|-----2-----2-------2--0--|-----2----------------2|
A|--0-----------------------|--------------2----------|--0--------------------|
E|--------------------------|--0----------------------|-----------------------|

  Em Em Em Em Am Em 
e|--7----7----7----7----|--------------0-----------|-------------------------|
B|--8----8----8----8----|-----------1-----1--------|-------------------------|
G|--9----9----9----9----|--------2-----------2-----|--------0----------------|
D|--9----9----9----9----|-----2-----------------2--|-----2-----2-------2--0--|
A|--7----7----7----7----|--0-----------------------|--------------2----------|
E|--0----0----0----0----|--------------------------|--0----------------------|

  Am Em Am 
e|--------------0-----------|-------------------------|--------------0--------|
B|-----------1-----1--------|-------------------------|-----------1-----1-----|
G|--------2-----------2-----|--------0----------------|--------2-----------2--|
D|-----2-----------------2--|-----2-----2-------2--0--|-----2----------------2|
A|--0-----------------------|--------------2----------|--0--------------------|
E|--------------------------|--0----------------------|-----------------------|

  Em Am Em
e|-------------------------|--------------0-----------|-----------------------|
B|-------------------------|-----------1-----1--------|-----------------------|
G|--------0----------------|--------2-----------2-----|--------0--------------|
D|-----2-----2-------2--0--|-----2-----------------2--|-----2-----2-------2--0|
A|--------------2----------|--0-----------------------|--------------2--------|
E|--0----------------------|--------------------------|--0--------------------|

  Am Em Em Em Em Am 
e|--------------0-----------|--7----7----7----7----|--------------0-----------|
B|-----------1-----1--------|--8----8----8----8----|-----------1-----1--------|
G|--------2-----------2-----|--9----9----9----9----|--------2-----------2-----|
D|-----2-----------------2--|--9----9----9----9----|-----2-----------------2--|
A|--0-----------------------|--7----7----7----7----|--0-----------------------|
E|--------------------------|---0----0----0----0----|-------------------------|

  Em Am Em 
e|-------------------------|--------------0-----------|-----------------------|
B|-------------------------|-----------1-----1--------|-----------------------|
G|--------0----------------|--------2-----------2-----|--------0--------------|
D|-----2-----2-------2--0--|-----2-----------------2--|-----2-----2-------2--0|
A|--------------2----------|--0-----------------------|--------------2--------|
E|--0----------------------|--------------------------|--0--------------------|

  Am Em 
e|--------------0-----------|-------------------------||
B|-----------1-----1--------|-------------------------||
G|--------2-----------2-----|--------0----------------||
D|-----2-----------------2--|-----2-----2-------2--0--||
A|--0-----------------------|--------------2----------||
E|--------------------------|--0----------------------||



************************************

| h  Hammer-on
| p  Pull-off
| /  Slide up
| ~  Vibrato

************************************
Suggest correction
comments
print report bad tab
3 comments total.
0 reply
jockus 10 wrote on April 12 2004, 12:00 am

good stuff !

0 reply
bigassrocker 10 wrote on March 17 2007, 04:56 pm

a very complete tab a like this song thanks mate

0 reply
bigblockelectra 20 wrote on May 25 2011, 12:17 am

you should mention that a slide is needed for the solos

guest
You may want to rate the tab now too:
select rating
Wanna post a correction for this tab? Suggest correction