Oops, an error
Loading. Please wait.

No Time To Lose bass

by Rainbow
10 views 1 this week
no commentswrite comment
1 2 3 4 5
3 more votes to show rating
add to favorites
×
Save as Personal and add changes to this tab that will be seen only by you. Learn more ›
×
You can save this tab as Personal to edit and correct it or add notes. All changes will be seen only by you. Learn more »
launch autoscroll
font size
0
reset
guitar tuner
edit
Autoscroll
slow
fast
+/-
esc
set tempo
stop
-------------------------------------------------------------------
                            Artist - Rainbow
                           ******************
                         Song - No Time To Lose
                        ************************
                      Album - Down To Earth (1979)
                     ******************************
                          Tabbed By - Ayreon77
                         **********************
-------------------------------------------------------------------
Tuning = Standard             


INTRO
******
G|---------------------------|---------------------------|---------------------------|
D|---------------------------|---------------------------|---------------------------|
A|-0--5-3-0-3-0---0--0-----0-|-0--5-3-0-3-0---0--0-----0-|-0--5-3-0-3-0---0--0-----0-|
E|--------------3------3-0---|--------------3------3-0---|--------------3------3-0---|


-----------------------------
00:09
VERSE 1
********
G|-------------------------------|-------------------------------|
D|-------------------------------|-------------------------------|
A|-----0--5-3-0-3-0---0--0-----0-|-----0--5-3-0-3-0---0--0-----0-|
E|-0-3--------------3------3-0---|-0-3--------------3------3-0---|


G|-------------------------------|--------|
D|-------------------------------|--------|
A|-----0--5-3-0-3-0---0--0-----0-|------s-|
E|-0-3--------------3------3-0---|-0-3-5\-|


-----------------------------
00:21
PRE CHORUS
************
G|-----------------------------|---------------------------|
D|-----------------------------|---------------------------|
A|-3-5--0-3-5--0-3-5--0-3-5--5-|-0--5-3-0-3-0---0--0-----0-|
E|-----------------------------|--------------3------3-0---|


G|------------------------------|---------------------------|
D|------------------------------|---------------------------|
A|-0-3-5--0-3-5--0-3-5--0-3-7-5-|-0--5-3-0-3-0---0--0-----0-|
E|------------------------------|--------------3------3-0---|


G|-------------------------------|
D|-------------------------------|
A|-----0--5-3-0-3-0---0--0-----0-|
E|-0-3--------------3------3-0---|


-----------------------------
00:36
CHORUS
*******
G|---------------------|-----------------------|--------------|
D|---------------------|-----------------------|--------------|
A|---------------------|-0-0-------------------|-5--5--5--3-2-|
E|-0-1-2-3--3-2-1-0--0-|------3-3---1--1--1--1-|--------------|


G|---------------------------|----------------------------------|----------------------------------|
D|---------------------------|----------------------------------|----------------------------------|
A|-0--5-3-0-3-0-3-5--5-3-0-5-|---3-0--0--5-3-0-3-0-3-5--5-3-0-5-|---3-0--0--5-3-0-3-0-3-5--5-3-0-5-|
E|---------------------------|-0--------------------------------|-0--------------------------------|


G|----------------|------------|------------|
D|----------------|------------|------------|
A|-----0--0-----0-|-0--0-----0-|-0--0-----0-|
E|-0-3------3-0---|------3-0---|------3-0---|


-----------------------------
01:01
VERSE 2
********
G|-------------------------------|-------------------------------|
D|-------------------------------|-------------------------------|
A|-----0--5-3-0-3-0---0--0-----0-|-----0--5-3-0-3-0---0--0-----0-|
E|-0-3--------------3------3-0---|-0-3--------------3------3-0---|


G|-------------------------------|--------|
D|-------------------------------|--------|
A|-----0--5-3-0-3-0---0--0-----0-|------s-|
E|-0-3--------------3------3-0---|-0-3-5\-|


-----------------------------
01:14
PRE CHORUS
************
G|-----------------------------|---------------------------|
D|-----------------------------|---------------------------|
A|-3-5--0-3-5--0-3-5--0-3-5--5-|-0--5-3-0-3-0---0--0-----0-|
E|-----------------------------|--------------3------3-0---|


G|------------------------------|---------------------------|
D|------------------------------|---------------------------|
A|-0-3-5--0-3-5--0-3-5--0-3-7-5-|-0--5-3-0-3-0---0--0-----0-|
E|------------------------------|--------------3------3-0---|


G|-------------------------------|
D|-------------------------------|
A|-----0--5-3-0-3-0---0--0-----0-|
E|-0-3--------------3------3-0---|


-----------------------------
01:29
CHORUS
*******
G|---------------------|-----------------------|--------------|
D|---------------------|-----------------------|--------------|
A|---------------------|-0-0-------------------|-5--5--5--3-2-|
E|-0-1-2-3--3-2-1-0--0-|------3-3---1--1--1--1-|--------------|


G|---------------------------|----------------------------------|----------------------------------|
D|---------------------------|----------------------------------|----------------------------------|
A|-0--5-3-0-3-0-3-5--5-3-0-5-|---3-0--0--5-3-0-3-0-3-5--5-3-0-5-|---3-0--0--5-3-0-3-0-3-5--5-3-0-5-|
E|---------------------------|-0--------------------------------|-0--------------------------------|


01:50
G|---------------------|----------------|---------------------|--------------|
D|---------------------|-------------s--|---------------------|-----------s--|
A|-------------5-3-----|------------5\7-|-------------5-3-----|----3--5--5\7-|
E|-5--5--5--5------5-3-|-5--5--5--5-----|-5--5--5--5------5-3-|-5------------|


-----------------------------
02:03
SOLO
*****
G|------------------------|-------------------------------------|
D|------------------------|-------------------------------------|
A|-2-3-4-5--5-5-4-4-3-3-0-|-0-0--2-2--3-3--5-5--3-3-0-0-----0-0-|
E|------------------------|-----------------------------3-3-----|

03:13
G|--------------------|--------------------|--------------------|-------------------------------------|
D|--------------------|--------------------|--------------------|-------------------------------------|
A|-0-0--2-2--3-3--5-5-|-5-5--5-5--5-5--5-5-|--------------------|-3-3-2-0-----0-2--0-0--0-0--0-0--0-0-|
E|--------------------|--------------------|-5-5--5-5--5-5--5-5-|---------3-3-------------------------|

02:16
G|--------------------|--------------------|-----------------|
D|-0-0--2-2--0-0------|--------------------|-----------------|
A|----------------3-3-|-0-0--2-2--3-3--5-5-|-3-3-2-0-----0-2-|
E|--------------------|--------------------|---------3-3-----|

02:20
G|--------------------|--------------------|--------------------|
D|--------------------|----------------5-5-|-7-7--5-5-----------|
A|-0-0--2-2--3-3--5-5-|-5-5--7-7--8-8------|-----------8-8--5-5-|
E|--------------------|--------------------|--------------------|

02:25
G|------------------------------------|-------------------------------------|
D|------------------------------------|-------------------------------------|
A|-3-3-2-0-----0-2--0-0--0-0--0-0-2-3-|-----------------------2-2--3-3--5-5-|
E|---------3-3------------------------|-3-3-3-3-3-3-3-3--3-3----------------|

02:31
G|---------------|
D|---------------|
A|-0-7-6-5-4-3-2-|
E|---------------|


-----------------------------
02:33
VERSE 3
********
G|-------------------------------|-------------------------------|
D|-------------------------------|-------------------------------|
A|-----0--5-3-0-3-0---0--0-----0-|-----0--5-3-0-3-0---0--0-----0-|
E|-0-3--------------3------3-0---|-0-3--------------3------3-0---|


G|-------------------------------|--------|
D|-------------------------------|--------|
A|-----0--5-3-0-3-0---0--0-----0-|------s-|
E|-0-3--------------3------3-0---|-0-3-5\-|


-----------------------------
02:46
PRE CHORUS
***********
G|-----------------------------|---------------------------|
D|-----------------------------|---------------------------|
A|-3-5--0-3-5--0-3-5--0-3-5--5-|-0--5-3-0-3-0---0--0-----0-|
E|-----------------------------|--------------3------3-0---|


G|------------------------------|---------------------------|
D|------------------------------|---------------------------|
A|-0-3-5--0-3-5--0-3-5--0-3-7-5-|-0--5-3-0-3-0---0--0-----0-|
E|------------------------------|--------------3------3-0---|


G|-------------------------------|
D|-------------------------------|
A|-----0--5-3-0-3-0---0--0-----0-|
E|-0-3--------------3------3-0---|


-----------------------------
03:01
CHORUS
*******
G|---------------------|-----------------------|--------------|
D|---------------------|-----------------------|--------------|
A|---------------------|-0-0-------------------|-5--5--5--3-2-|
E|-0-1-2-3--3-2-1-0--0-|------3-3---1--1--1--1-|--------------|


G|---------------------------|----------------------------------|----------------------------------|
D|---------------------------|----------------------------------|----------------------------------|
A|-0--5-3-0-3-0-3-5--5-3-0-5-|---3-0--0--5-3-0-3-0-3-5--5-3-0-5-|---3-0--0--5-3-0-3-0-3-5--5-3-0-5-|
E|---------------------------|-0--------------------------------|-0--------------------------------|


G|----------------------------------|----------------------------------|----------------------------------|
D|----------------------------------|----------------------------------|----------------------------------|
A|---3-0--0--5-3-0-3-0-3-5--5-3-0-5-|---3-0--0--5-3-0-3-0-3-5--5-3-0-5-|---3-0--0--5-3-0-3-0-3-5--5-3-0-5-|
E|-0--------------------------------|-0--------------------------------|-0--------------------------------|


-----------------------------
03:30
OUTRO
******
G|----------------|-----------|------------|-------------|
D|----------------|-2-2-0---2-|-0-0------0-|-------------|
A|-----0--0-----0-|-------2---|-----3--0---|-----0~~~~~~-|
E|-0-3------3-0---|-----------|------------|-0-3---------|


ENJOY.......
Suggest correction
Creating personal tab
Creating personal tab
You can edit any tab online and save it as your Personal.

You can edit, replace or remove any tab part or add personal notes – all changes will be seen only by you.

Personal tabs can be accessed anytime from any device, even offline.
Learn more »
Give kudos to tab author, rate the tab!
1 2 3 4 5
comments
print report bad tab
guest
You may want to rate the tab now too:
select rating
Wanna post a correction for this tab? Suggest correction