Oops, an error
Loading. Please wait.

Rainbow Eyes tab

version 2
version 2

Whole song

Interactive

by Rainbow
11,412 views 3 this week
no commentswrite comment
1 2 3 4 5
x 8
add to favorites
×
Save as Personal and add changes to this tab that will be seen only by you. Learn more ›
×
You can save this tab as Personal to edit and correct it or add notes. All changes will be seen only by you. Learn more »
launch autoscroll
font size
0
reset
how to read this tab
guitar tuner
edit
Autoscroll
slow
fast
+/-
esc
set tempo
stop
                                 Rainbow Eyes                                   


Guitar
                                                        
E||-------0--0---------------|--------------2----------|
B||-------5--3--0-0-0--0--0--|--1-----1--------1--1----|
G||-------------4-2-0--2--4--|-----2-----2-------------|
D||--------------------------|-------------------------|
A||--------------------------|--0----------------------|
E||--0-----------------------|-------------------------|


                                                            
-------0--0---------------|---------------0----------------|
-------5--3--0-0-0--0--0--|------------1--1---------1------|
-------------4-2-0--2--4--|---------0--0--0-2--0----0-0----|
--------------------------|-----2-0-0------------2----0-2--|
--------------------------|--3------7----------------------|
--0-----------------------|--------------------------------|


                                                      
---------------------------|--------0--2--0----2--0--|
-----------1-3-1-----------|--------0--2--8----0-----|
-------0---0-2-0-----0--2--|--------------7-------0--|
-------0-2--------2--0--2--|-------------------------|
--0------------------------|-----2-------------------|
---------------------------|--0----------------------|


                                                      
----0----2----0----------0--|--------------3----2----|
--3-0-3-----3-0-1-----3-----|--3--------3------------|
--2---2-----2---0-----0--0--|--2-----2---------------|
--0----------------2--------|-----0------------------|
----------------3-----------|------------------------|
----------------------------|--2---------------------|


                                                      
--------------------------|--------2-----------0-----|
-----------0--------0-----|-----------3-----------0--|
-----------------------0--|--------------------------|
--------2--------0--------|-----0-----------2--------|
-----2--------------------|--------------0-----------|
--0-----------3-----------|--2-----------------------|


                                                                                
--------------------------|--------------0----------|--------------------------|
--------1-----------3-----|-------------------------|-----------------------0--|
-----------0-----------2--|-----------0-------0-----|-----------0--------------|
-----2-----------0--------|--------2-------------2--|--------2-----------0-----|
--3-----------------------|-----2-------------------|-----2-----------2--------|
--------------2-----------|--0----------------------|--0-----------3-----------|


                                                        
--------2-----------0------|---------0-----------------|
-----------3---------------|---------------------3-----|
-----------------------2---|----0-------0-----------2--|
-----0-----------2-------2-|------2-----------0--------|
--------------0------------|--3------------------------|
--2------------------------|---------------2-----------|


                                                                               
--------------0----------|-------------------------|-----------3--------------|
-------------------------|--------1----------3-----|--------0-----0-----------|
-----------0-------0-----|----------------------2--|-----------------0--------|
--------2----------------|-----2----------0--------|-----0--------------------|
-----2----------------2--|--3----------------------|--------------------------|
--0----------------------|-------------2-----------|--3-----------------3--2--|


                                                                                
-----------0--------------|-----------2--3--2--0-----|-------------------------|
--------------------2-----|--------3--------------3--|-------------------3-----|
-----------------2-----0--|-----2--------------------|--------0-------2-----2--|
--------2-----------------|--0-----------------------|-----2-------0-----------|
-----2--------0-----------|--------------------------|--3----------------------|
--0-----------------------|--------------------------|-------------------------|


                                                                         
--------------3----------|--------------0--------|----------------------|
-----------0-----0-------|-----------1-----------|----------------------|
--------0-----------0----|--------0--------------|------5---------------|
-----0-------------------|-----2-----------------|----2-----------------|
-------------------------|--3--------------------|--0-7-----------------|
--3----------------------|-----------------------|----------------------|


                                                                  
-----------|--------------------------|-----------------------0--|
-----------|--------------------------|--------3-----------0-----|
-----------|-----------0-----------0--|-----2-----2--------------|
-----------|--------2-----------0-----|--0--------------2--------|
------0----|-----2-----------2--------|--------------0-----------|
-----------|--0-----------3-----------|--------------------------|


                                                                                
-------------------------|-----------0-----------0--|-----------2--------------|
-----------0----------0--|--------1-----------1-----|--------1-------3----7----|
-------------------------|--------------------------|-----2----------7---------|
--------2----------0-----|-----2-----------2--------|--0-----------0-----------|
-----2-------------------|--3-----------0-----------|--------------7-----------|
--0-----------3----------|--------------------------|--------------------------|


                                                      
--------------------------|--------2-----------0-----|
-----------0--------0-----|-----------3-----------0--|
-----------------------0--|--------------------------|
--------2--------0--------|-----0-----------2--------|
-----2--------------------|--------------0-----------|
--0-----------3-----------|--2-----------------------|


                                                                                
--------------------------|--------------0----------|--------------------------|
--------1-----------3-----|-------------------------|-----------------------0--|
-----------0-----------2--|-----------0-------0-----|-----------0--------------|
-----2-----------0--------|--------2-------------2--|--------2-----------0-----|
--3-----------------------|-----2-------------------|-----2-----------2--------|
--------------2-----------|--0----------------------|--0-----------3-----------|


                                                        
--------2-----------0------|---------0-----------------|
-----------3---------------|---------------------3-----|
-----------------------2---|----0-------0-----------2--|
-----0-----------2-------2-|------2-----------0--------|
--------------0------------|--3------------------------|
--2------------------------|---------------2-----------|


                                                                               
--------------0----------|-------------------------|-----------3--------------|
-------------------------|--------1----------3-----|--------0-----0-----------|
-----------0-------0-----|----------------------2--|-----------------0--------|
--------2----------------|-----2----------0--------|-----0--------------------|
-----2----------------2--|--3----------------------|--------------------------|
--0----------------------|-------------2-----------|--3-----------------3--2--|


                                                                                
-----------0--------------|-----------2--3--2--0-----|-------------------------|
--------------------2-----|--------3--------------3--|-------------------3-----|
-----------------2-----0--|-----2--------------------|--------0-------2-----2--|
--------2-----------------|--0-----------------------|-----2-------0-----------|
-----2--------0-----------|--------------------------|--3----------------------|
--0-----------------------|--------------------------|-------------------------|


                                                                         
--------------3----------|--------------0--------|----------------------|
-----------0-----0-------|-----------1-----------|----------------------|
--------0-----------0----|--------0--------------|------5---------------|
-----0-------------------|-----2-----------------|----2-----------------|
-------------------------|--3--------------------|--0-7-----------------|
--3----------------------|-----------------------|----------------------|


                                                                  
-----------|--------------------------|-----------------------0--|
-----------|--------------------------|--------3-----------0-----|
-----------|-----------0-----------0--|-----2-----2--------------|
-----------|--------2-----------0-----|--0--------------2--------|
------0----|-----2-----------2--------|--------------0-----------|
-----------|--0-----------3-----------|--------------------------|


                                                     
-------------------------|-----------0-----------0--|
-----------0----------0--|--------1-----------1-----|
-------------------------|--------------------------|
--------2----------0-----|-----2-----------2--------|
-----2-------------------|--3-----------0-----------|
--0-----------3----------|--------------------------|


                            
-----------2--------------||
--------1-------3----7----||
-----2----------7---------||
--0-----------0-----------||
--------------7-----------||
--------------------------||


Criol

            
            
Suggest correction
Creating personal tab
Creating personal tab
You can edit any tab online and save it as your Personal.

You can edit, replace or remove any tab part or add personal notes – all changes will be seen only by you.

Personal tabs can be accessed anytime from any device, even offline.
Learn more »
comments
print report bad tab
guest
Wanna post a correction for this tab? Suggest correction