Oops, an error
Loading. Please wait.

Since Youve Been Gone bass

version 4
version 4

Whole song

Interactive

by Rainbow
1,439 views 3 this week
3 commentsread comments
1 2 3 4 5
x 8
add to favorites
×
Save as Personal and add changes to this tab that will be seen only by you. Learn more ›
×
You can save this tab as Personal to edit and correct it or add notes. All changes will be seen only by you. Learn more »
launch autoscroll
font size
0
reset
guitar tuner
backing track
0:00
0:00
edit
Autoscroll
slow
fast
+/-
esc
set tempo
stop
Author
Difficulty
Since You've Been Gone
Written by ex Argent guitarist Russ Ballard
This version by Rainbow with Graham Bonnet on Vocals
Taken from the album Down To Earth reached number 6 in
the UK charts. Tabbed here by bass50611
I feel that, different to other tabs, what you can here on
the first part of the intro is a second guitar and not the bass.
Note the end of chorus 2 NOT the same format as chorus 1
Any comments email bass254@btinternet.com

Intro:
G|------------------|----------------------------------------------|
D|----NO BASS-------|----------------------------------------------|
A|----ON FIRST------|------------5-5--7-7-7--3-3---------5-7-3-3h5-|
E|----PART INTRO----|-12\-3-3-3-------------------3-3-3------------|

Verse:
G|-----------------------------------------------|
D|-5-5---4-4---2-2---------------------------2-3-|
A|-----------------5-5---3-3---2-2---0-0-2-3-----|
E|-----------------------------------------------|

G|---------------------------------------------------|
D|-5-5---4-4---2-2-----------------------------------|
A|-----------------5-5---3-3---2-2---0-0---2-3-4-5-6-|
E|---------------------------------------------------|

Bridge:
G|-------------------------------------|
D|---------7---------------------------|
A|------8-----8----6-----------3-4-5---|
E|---8------------------8-6-5----------|

Chorus:                        (PLAY THIS x3)
G|-------------------------------------------|
D|-------------------------------------------|
A|-------5-5--7-7-7--3-3---------5-7-3-33-55-|
E|-3-3-3-------------------3-3-3-------------|

Solo:
G|----------------------------------------------------------------------|
D|-----------------------0-2----------------------------------------0-2-|
A|--------2---3---5---2------5---3---2-0---5----------2---3---5---2-----|
E|-3---5--------------------------------------3---5---------------------|

G|---------------------------------|
D|---------------------------------|
A|---5---3---2-0-3---5-5-5---5-5---|
E|---------------------------------|

Chorus 2: (Key Change)
G|---------------------------------------------------------------------|
D|---------------------------------------------------------------------|
A|-------7-7--9-9-9--5-5-------7-9-5-55-77-------7-7--9-9-9--5-5-------|
E|-5-5-5-----------------5-5-5-------------5-5-5-----------------5-5-5-|

G|------------------------------------------------------------------------|
D|------------------------------------------------------------------------|
A|-7-9-5-55-77-------7-7--9-9-9--8-8-------7-7--9-9-9--8-8--------7-7-----|
E|-------------5-5-5-----------------5-5-5------------------5-5-5-------5-|

Outro: (REPEAT TO FADE/END)
G|-------------------------------------------|
D|-------------------------------------------|
A|-------7-7---9-9-9---5-5-------7-9-5-55-77-|
E|-5-5-5-------------------5-5-5-------------|

            
            
Suggest correction
Creating personal tab
Creating personal tab
You can edit any tab online and save it as your Personal.

You can edit, replace or remove any tab part or add personal notes – all changes will be seen only by you.

Personal tabs can be accessed anytime from any device, even offline.
Learn more »
comments
print report bad tab
3 comments total.
+1 reply
xxxxChrisTxxxx [tm] 10,225 Nov 30, 2013 04:15 AM

Think the second part to the verse is like this....

G|----------------------------------------------------|
D|-5-5---4-4---2-2------------------------------------|
A|-----------------5-5---3-3---2-2---0-0---7-6-5---6--|
E|----------------------------------------------------|

+1 reply
xxxxChrisTxxxx [tm] 10,225 Nov 30, 2013 04:33 AM

^^^and there's a faint slide up from somewhere to the last note in that

Second verse is slightly different too....

G|----------------------------------------------------|
D|-5-5---4-4---2-2------------------------------------|
A|-----------------5-5---3-3---2-2---0-0-2-4-5-3-2-0--|
E|----------------------------------------------------|

G|------------------------------------------------------|
D|-5-5---4-4---2-2--------------------------------------|
A|-----------------5-5---3-3---2-2---0-0---7-6-5--12\-6-|
E|------------------------------------------------------|

0 reply
Phil Starr 616 Mar 26, 2017 04:50 AM

This is the best bass tab here but you might want to play the solo section like this

Solo: (PLAY THIS x2)
G|-------------------------------------------|
D|-------------------------1-2--2-0----------|
A|----------2—-2-3---5—-5-2---------3--2-0-5-|
E|-3—-3-5------------------------------------|

G|----------------|
D|----------------|
A|--5-5-5---5-5---|
E|----------------|

guest
You may want to rate the tab now too:
select rating
Wanna post a correction for this tab? Suggest correction