Oops, an error
Loading. Please wait.

Stone Cold tab

version 1
version 1

Whole song

Interactive

by Rainbow
24,217 views 36 this week
1 commentread comment
1 2 3 4 5
x 5
add to favorites
×
Save as Personal and add changes to this tab that will be seen only by you. Learn more ›
×
You can save this tab as Personal to edit and correct it or add notes. All changes will be seen only by you. Learn more »
launch autoscroll
font size
0
reset
how to read this tab
guitar tuner
backing track
0:00
0:00
edit
Autoscroll
slow
fast
+/-
esc
set tempo
stop
Author
STONE COLD
                             As recorded by Rainbow
                 (From the 1982 Album STRAIGHT BETWEEN THE EYES)

Words and Music by Ritchie Blackmore,Joe Lynn Turner & Roger Glover

Gtr I (E A D G B E) - 'David Rosenthal - arrangement for rock organ for guitar'
Gtr II (E A D G B E) - 'Ritchie Blackmore -  overdriven gtr'
Gtr III (E A D G B E) - 'Ritchie Blackmore - overdriven gtr'

[Intro]
 
  N.C.        Am
 
   Gtr I
e|----------||-------3-5-3s5----|--5----8-7-5-3--3----|
B|----------||------------------|------------------3--|
G|----------||------------------|---------------------|
D|----------||------------------|---------------------|
A|----------||------------------|---------------------|
E|-5--------||-(5)--------------|-(5)-----------------|


e|----------------|------------|-------8-7-5----|
B|--5-------3--1--|------------|--5--8----------|
G|----------------|--4---------|----------------|
D|----------------|------------|----------------|
A|----------------|------------|----------------|
E|-(5)------------|-(5)--------|-(5)------------|


   Am  C/A        G/A            Am  C/A           G   Am
   Gtr I
e|-5---8-(8)----|-3---7-(7)----|-5----8-(8)------|-7----8--(8)----|
B|-5---8-(8)----|-3---8-(8)----|-5----8-(8)------|-8---10-(10)----|
G|-5---9-(9)----|-4---7-(7)----|-5----9-(9)------|-7----9--(9)----|
D|--------------|--------------|-----------------|----------------|
A|--------------|--------------|-----------------|----------------|
E|--------------|--------------|-----------------|----------------|
|
 | Gtr II
e|--------------|--------------|-----------------|----------------|
B|--------------|--------------|-1---/5-(5)-6--5-|-3----5--(5)----|
G|-2---5-(5)----|-4---7-(7)----|-2---/5-(5)-5--5-|-4----5--(5)----|
D|-2---5-(5)----|-5---5-(5)----|-----------------|----------------|
A|--------------|--------------|-----------------|----------------|
E|--------------|--------------|-----------------|----------------|


   Am  C/A        G/A            Am  C/A           G   Am
e|-5---8-(8)----|-3---7-(7)----|-5----8-(8)------|-7----8--(8)----||
B|-5---8-(8)----|-3---8-(8)----|-5----8-(8)------|-8---10-(10)----||
G|-5---9-(9)----|-4---7-(7)----|-5----9-(9)------|-7----9--(9)----||
D|--------------|--------------|-----------------|----------------||
A|--------------|--------------|-----------------|----------------||
E|--------------|--------------|-----------------|----------------||
|
e|--------------|--------------|-----------------|----------------||
B|--------------|--------------|-1---/5-(5)-6--5-|-3---/5--(5)----||
G|-2---5-(5)----|-4---7-(7)----|-2---/5-(5)-5--5-|-4---/5--(5)----||
D|-2---5-(5)----|-5---5-(5)----|-----------------|----------------||
A|--------------|--------------|-----------------|----------------||
E|--------------|--------------|-----------------|----------------||


 [Verse 1]
   Am  C/A        G/A            Am  C/A           G
   Gtr I
e|-5---8-(8)----|-3---7-(7)----|-5----8-(8)------|-7-------------------|
B|-5---8-(8)----|-3---8-(8)----|-5----8-(8)------|-8-------------------|
G|-5---9-(9)----|-4---7-(7)----|-5----9-(9)------|-7-------------------|
D|--------------|--------------|-----------------|---------------------|
A|--------------|--------------|-----------------|---------------------|
E|--------------|--------------|-----------------|---------------------|
|
 | Gtr II
e|--------------|--------------|-----------------|---------------------|
B|--------------|--------------|-1---/5-(5)-6--5-|-3-1--0---0----------|
G|-2---5-(5)----|-4---7-(7)----|-2---/5-(5)-5--5-|-4-2--0---0----------|
D|-2---5-(5)----|-5---5-(5)----|-----------------|---------------------|
A|--------------|--------------|-----------------|---------------------|
E|--------------|--------------|-----------------|---------------------|
|
 | Gtr III
e|--------------|--------------|-----------------|------------------8--|
B|--------------|--------------|-----------------|--------8-8b10r8-----|
G|--------------|--------------|-----------------|---------------------|
D|--------------|--------------|-----------------|---------------------|
A|--------------|--------------|-----------------|---------------------|
E|--------------|--------------|-----------------|---------------------|


   Am     C/A         G/A            Am  C/A           G
e|-5-------8-(8)----|-3---7-(7)----|-5----8-(8)------|-7----------|
B|-5-------8-(8)----|-3---8-(8)----|-5----8-(8)------|-8----------|
G|-5-------9-(9)----|-4---7-(7)----|-5----9-(9)------|-7----------|
D|------------------|--------------|-----------------|------------|
A|------------------|--------------|-----------------|------------|
E|------------------|--------------|-----------------|------------|
|
|                                              PM----------|
|------------------|--------------|-----------------|------------|
|------------------|--------------|-1---/5-(5)-6--5-|-3-1--0-----|
|-2------/5-(5)----|-4---7-(7)----|-2---/5-(5)------|------------|
|-2------/5-(5)----|-5---5-(5)----|-----------------|------------|
|------------------|--------------|-----------------|------------|
|------------------|--------------|-----------------|------------|
|
e|------------------|--------------|-----------------|------------|
B|-8b10-------------|--------------|-----------------|------------|
G|------------------|--------------|-----------------|------------|
D|------------------|--------------|-----------------|------------|
A|------------------|--------------|-----------------|------------|
E|------------------|--------------|-----------------|------------|


   Am   C/A        G/A
   Gtr I
e|--5---8-(8)----|---3----7-(7)---------|
B|--5---8-(8)----|---3----8-(8)---------|
G|--5---9-(9)----|---4----7-(7)---------|
D|---------------|----------------------|
A|-24------------|-(24)-----------------|
E|---------------|----------------------|
|
 | Gtr II
e|---------------|----------------------|
B|---------------|----------------------|
G|--2---5-(5)----|---4----7-(7)---------|
D|--2---5-(5)----|---5----5-(5)---------|
A|---------------|----------------------|
E|---------------|----------------------|
|
 |    Gtr III
e|---------------|----------------------|
B|---------------|---------------15b17--|
G|---------------|----------------------|
D|---------------|----------------------|
A|---------------|----------------------|
E|---------------|----------------------|


   Am          C/A                        G
e|---5----------8-(8)-------------------|---7--------------------|
B|---5----------8-(8)-------------------|---8--------------------|
G|---5----------9-(9)-------------------|---7--------------------|
D|--------------------------------------|------------------------|
A|-(24)---------------------------------|-(24)-------------------|
E|--------------------------------------|------------------------|
|
e|--------------------------------------|------------------------|
B|---1---------/5-(5)------6-------5----|---3--1----0-----(0)----|
G|---2---------/5-(5)------5-------5----|---4--2----0-----(0)----|
D|--------------------------------------|------------------------|
A|--------------------------------------|------------------------|
E|--------------------------------------|------------------------|
|
e|--------------------------------------|------------------------|
B|-(15)--15b17----15b17r15p==13-15p==13-|--15----13S==12-(12)----|
G|--------------------------------------|------------------------|
D|--------------------------------------|------------------------|
A|--------------------------------------|------------------------|
E|--------------------------------------|------------------------|


   Am     C/A        G/A
e|---5----8-(8)----|---3----7-(7)----|
B|---5----8-(8)----|---3----8-(8)----|
G|---5----9-(9)----|---4----7-(7)----|
D|-----------------|-----------------|
A|-(24)------------|-(24)------------|
E|-----------------|-----------------|
|
e|-----------------|-----------------|
B|-----------------|-----------------|
G|---2----5-(5)----|---4----7-(7)----|
D|---2----5-(5)----|---5----5-(5)----|
A|-----------------|-----------------|
E|-----------------|-----------------|
|
 |                     ~~~~
e|-----------------|-----------------|
B|-----------------|-----------------|
G|-/14-------------|-(14)------------|
D|-----------------|-----------------|
A|-----------------|-----------------|
E|-----------------|-----------------|


   Am     C/A           G
e|---5-----8-(8)------|---7---------|--(7)----||
B|---5-----8-(8)------|---8---------|--(8)----||
G|---5-----9-(9)------|---7---------|--(7)----||
D|--------------------|-------------|---------||
A|-(24)---------------|-(24)--------|-(24)----||
E|--------------------|-------------|---------||
|
e|--------------------|-------------|---------||
B|---1----/5-(5)-6--5-|---3---------|--(3)----||
G|---2----/5-(5)-5--5-|---4---------|--(4)----||
D|--------------------|-------------|---------||
A|--------------------|-------------|---------||
E|--------------------|-------------|---------||
|
e|--------------------|-------------|---------||
B|--------------------|-------------|---------||
G|--------------------|-------------|---------||
D|--------------------|-------------|---------||
A|--------------------|-------------|---------||
E|--------------------|-------------|---------||


  Pre-Chorus1,2
   $
   C   G      D                        C   G      D
   Gtr I
e|---------------|-------------------|---------------|------------------|
B|-5---3-(3)--7--|-(7)---------------|-5---3-(3)--7--|-(7)--------------|
G|-5---4-(4)--7--|-(7)---------------|-5---4-(4)--7--|-(7)--------------|
D|-5---5-(5)--7--|-(7)---------------|-5---5-(5)--7--|-(7)--------------|
A|---------------|--------5-3--------|---------------|------------------|
E|---------------|------------5-3-5--|---------------|------------------|
|
 | Gtr II
e|---------------|-------------------|---------------|------------------|
B|-5---3-(3)--7--|-(7)---------------|-5---3-(3)--7--|--7------5b7r5----|
G|-5---4-(4)--7--|-(7)---------------|-5---4-(4)--7--|--7----5----------|
D|-5---5-(5)--7--|-(7)---------------|-5---5-(5)--7--|--7--7------------|
A|-3---5-(5)--5--|-(5)----5-3--------|-3---5-(5)--5--|--5---------------|
E|-----3-(3)-----|------------5-3-5--|-----3-(3)-----|------------------|


   C   G      D                        C   G      D        Dm
e|---------------|-------------------|---------------|---------||
B|-5---3-(3)--7--|-(7)---------------|-5---3-(3)--7--|-(7)-----||
G|-5---4-(4)--7--|-(7)---------------|-5---4-(4)--7--|-(7)-----||
D|-5---5-(5)--7--|-(7)---------------|-5---5-(5)--7--|-(7)-----||
A|---------------|--------5-3--------|---------------|---------||
E|---------------|------------5-3-5--|---------------|---------||
|
e|---------------|-------------------|---------------|---------||
B|-5---3-(3)--7--|-(7)---------------|-5---3-(3)--7--|--7------||
G|-5---4-(4)--7--|-(7)---------------|-5---4-(4)--7--|--7------||
D|-5---5-(5)--7--|-(7)---------------|-5---5-(5)--7--|--7------||
A|-3---5-(5)--5--|-(5)----5-3--------|-3---5-(5)--5--|--5------||
E|-----3-(3)-----|------------5-3-5--|-----3-(3)-----|---------||


 [Chorus 1]
   Am  C/A          G/A            Am            F
   Gtr I
e|----------------|--------------|-------------|---------------|
B|-5----8--(8)----|-3---8-(8)----|-1-3-5-6-5-3-|-1---0-(0)-----|
G|-5----9--(9)----|-4---7-(7)----|-2-4-5-7-5-4-|-2---0-(0)--2--|
D|-7---10-(10)----|-5---9-(9)----|-------------|------------3--|
A|----------------|--------------|-------------|---------------|
E|----------------|--------------|-------------|---------------|
|
 | Gtr II
e|----------------|--------------|-------------|---------------|
B|----------------|--------------|-1-3-5-6-5-3-|-1---0-(0)-----|
G|-2----5--(5)----|-4---7-(7)----|-2-4-5-7-5-4-|-2---0-(0)--2--|
D|-2----5--(5)----|-5---5-(5)----|-------------|------------3--|
A|----------------|--------------|-------------|---------------|
E|----------------|--------------|-------------|---------------|


                                        To Coda
   Am  C/A          G/A            Am            F
e|----------------|--------------|-------------|---------------||
B|-5----8--(8)----|-3---8-(8)----|-1-3-5-6-5-3-|-1---0-(0)-----||
G|-5----9--(9)----|-4---7-(7)----|-2-4-5-7-5-4-|-2---0-(0)--2--||
D|-7---10-(10)----|-5---9-(9)----|-------------|------------3--||
A|----------------|--------------|-------------|---------------||
E|----------------|--------------|-------------|---------------||
|
e|----------------|--------------|-------------|---------------||
B|----------------|--------------|-1-3-5-6-5-3-|-1---0-(0)-----||
G|-2----5--(5)----|-4---7-(7)----|-2-4-5-7-5-4-|-2---0-(0)--2--||
D|-2----5--(5)----|-5---5-(5)----|-------------|------------3--||
A|----------------|--------------|-------------|---------------||
E|----------------|--------------|-------------|---------------||


 [Verse 2]
   Am  C/A        G/A            Am  C/A           G
   Gtr I
e|-5---8-(8)----|-3---7-(7)----|-5----8-(8)------|-7----------|
B|-5---8-(8)----|-3---8-(8)----|-5----8-(8)------|-8----------|
G|-5---9-(9)----|-4---7-(7)----|-5----9-(9)------|-7----------|
D|--------------|--------------|-----------------|------------|
A|--------------|--------------|-----------------|------------|
E|--------------|--------------|-----------------|------------|
|
 | Gtr II
e|--------------|--------------|-----------------|------------|
B|--------------|--------------|-1---/5-(5)-6--5-|-3-1-0-0----|
G|-2------------|-4---7-(7)----|-2---/5-(5)-7--5-|-4-2-0-0----|
D|-2------------|-5---5-(5)----|-----------------|------------|
A|--------------|--------------|-----------------|------------|
E|--------------|--------------|-----------------|------------|


   Am  C/A          G/A               Am  C/A         G
   Gtr I
e|-5----8--(8)----|---3----7-(7)----|-5----8-(8)----|-7-------------|
B|-5----8--(8)----|---3----8-(8)----|-5----8-(8)----|-8-------------|
G|-5----9--(9)----|---4----7-(7)----|-5----9-(9)----|-7-------------|
D|----------------|-----------------|---------------|---------------|
A|----------------|-----------------|---------------|---------------|
E|----------------|-----------------|---------------|---------------|
|
 | Gtr II
e|----------------|-----------------|---------------|---------------|
B|----------------|-----------------|-1---/5-(5)----|-3-------------|
G|-2---/5--(5)----|---4----7-(7)----|-2---/5-(5)----|-4-------------|
D|-2---/5--(5)----|---5----5-(5)----|---------------|---------------|
A|----------------|-----------------|---------------|---------------|
E|----------------|-----------------|---------------|---------------|
|
 | Gtr III
 |                    ~~~~
e|----------------|-----------------|---------------|---------------|
B|-----10-(10)----|-(10)------------|---------------|------12b14----|
G|----------------|-----------------|---------------|---------------|
D|----------------|-----------------|---------------|---------------|
A|----------------|-----------------|---------------|---------------|
E|----------------|-----------------|---------------|---------------|


   Am   C/A             G/A
   Gtr I
e|--5---8-(8)---------|---3----------7--(7)----|
B|--5---8-(8)---------|---3----------8--(8)----|
G|--5---9-(9)---------|---4----------7--(7)----|
D|--------------------|------------------------|
A|-24-----------------|-(24)-------------------|
E|--------------------|------------------------|
|
 | Gtr II
e|--------------------|------------------------|
B|--------------------|------------------------|
G|--2---5-(5)---------|---4----------7--(7)----|
D|--2---5-(5)---------|---5----------5--(5)----|
A|--------------------|------------------------|
E|--------------------|------------------------|
|
 | Gtr III
e|--------------------|------------------------|
B|--------12pb14r==12-|------------------------|
G|--------------------|------14--12----/14-----|
D|--------------------|-------------12---------|
A|--------------------|------------------------|
E|--------------------|------------------------|


   Am     C/A           G
e|---5-----8-(8)------|---7-------------------------|
B|---5-----8-(8)------|---8-------------------------|
G|---5-----9-(9)------|---7-------------------------|
D|--------------------|-----------------------------|
A|-(24)---------------|-(24)------------------------|
E|--------------------|-----------------------------|
|
e|--------------------|-----------------------------|
B|---1----/5-(5)-6--5-|---3--1-------0--(0)---------|
G|---2----/5-(5)-5--5-|---4--2-------0--(0)---------|
D|--------------------|-----------------------------|
A|--------------------|-----------------------------|
E|--------------------|-----------------------------|
|
e|--------------------|-----------------------------|
B|--------------------|--------15b17---(15)-15-13---|
G|--------------------|-----------------------------|
D|--------------------|-----------------------------|
A|--------------------|-----------------------------|
E|--------------------|-----------------------------|


   Am                  C/A
e|---5-----------------8--(8)----|
B|---5-----------------8--(8)----|
G|---5-----------------9--(9)----|
D|-------------------------------|
A|-(24)--------------------------|
E|-------------------------------|
|
e|-------------------------------|
B|-------------------------------|
G|---2-----------------5--(5)----|
D|---2-----------------5--(5)----|
A|-------------------------------|
E|-------------------------------|
|
e|-------------------------------|
B|--15b17-15b17--15b17---(15)----|
G|-------------------------------|
D|-------------------------------|
A|-------------------------------|
E|-------------------------------|


                                 D.S. al Coda
   G/A               Am     C/A         G
e|---3----7-(7)----|---5-----8-(8)----|----------||
B|---3----8-(8)----|---5-----8-(8)----|--12------||
G|---4----7-(7)----|---5-----9-(9)----|--12------||
D|-----------------|------------------|--12------||
A|-(24)------------|-(24)-------------|-(24)-----||
E|-----------------|------------------|----------||
|
e|-----------------|------------------|----------||
B|-----------------|---1----/5-(5)----|---3------||
G|---4----7-(7)----|---2----/5-(5)----|---4------||
D|---5----5-(5)----|------------------|----------||
A|-----------------|------------------|----------||
E|-----------------|------------------|----------||
|
 |   ~~~~
e|-----------------|------------------|----------||
B|-(15)------------|------------------|----------||
G|-----------------|------------------|----------||
D|-----------------|------------------|----------||
A|-----------------|------------------|----------||
E|-----------------|------------------|----------||


 [Interlude]
   &
   F                                  Am                      F    G
   Gtr I
e|----------------8--|--(8)--------||------------------8----|--(8)----------|
B|---------------10--|-(10)--------||-----------------10----|-(10)----------|
G|---------------10--|-(10)--------||-----------------10----|-(10)----------|
D|-------------------|-------------||-----------------------|---------------|
A|-15---14-(14)--12--|-(12)--------||-----------------------|---------------|
E|-17---15-(15)--13--|-(13)--------||-----------------------|---------------|
|
 | Gtr II
e|-------------------|-------------||-----------------------|---------------|
B|--1----0--(0)------|-------------||-----------------------|---------------|
G|--2----0--(0)---2--|--(2)--------||-4pb5r=4p2-(2)-4--2----|---------------|
D|----------------3--|--(3)--------||-----------------------|---------------|
A|-------------------|-------------||--------------------/7-|---5-------3-5-|
E|-------------------|-------------||-----------------------|---------------|


   Am                     G   F                Am
e|----------------------|--------------------|------------------------------|
B|-10-------------------|-8---6-(6)----------|-10---------------------------|
G|--9-------------------|-7---5-(5)----------|--9---------------------------|
D|-10-------------------|-9---7-(7)----------|-10---------------------------|
A|----------------------|--------------------|------------------------------|
E|----------------------|--------------------|------------------------------|
|
e|----------------------|--------------------|------------------------------|
B|----------------------|--------------------|----------------------------8-|
G|----------------------|--------------4-5-7-|--9-9b10r=9-(9)-7h9p7-(7)S5---|
D|----------------5-5S7S|=5-----(5)-7--------|------------------------------|
A|--5S7-(7)h8-(8)-------|--------------------|------------------------------|
E|----------------------|--------------------|------------------------------|


   F     G                     Am
e|---------------------------|-------------------------------|
B|-6-----8-(8)---------------|-10----------------------------|
G|-5-----7-(7)---------------|--9----------------------------|
D|-7-----9-(9)---------------|-10----------------------------|
A|---------------------------|-------------------------------|
E|---------------------------|-------------------------------|
|
 | ~~~
e|-------------5-------------|--7p5-8-7p5---5----------------|
B|---------------8-----5-8-5-|------------8---8S10--10b13----|
G|-7b9-----(7)-----7b9-------|-------------------------------|
D|---------------------------|-------------------------------|
A|---------------------------|-------------------------------|
E|---------------------------|-------------------------------|


   G        F                         Am
e|----------------------------------|------------------------------|
B|-8--------6----(6)----------------|-10---------------------------|
G|-7--------5----(5)----------------|--9---------------------------|
D|-9--------7----(7)----------------|-10---------------------------|
A|----------------------------------|------------------------------|
E|----------------------------------|------------------------------|
|
e|-7--8--9----10-----11--12--15b17==|=15r=15-15b17r15-15-15pb17r15-|
B|----------------------------------|------------------------------|
G|----------------------------------|------------------------------|
D|----------------------------------|------------------------------|
A|----------------------------------|------------------------------|
E|----------------------------------|------------------------------|


   F               G                  Am
e|----------------------------------|-------------------------------------|
B|--6--------------8----(8)---------|-10----------------------------------|
G|--5--------------7----(7)---------|--9----------------------------------|
D|--7--------------9----(9)---------|-10----------------------------------|
A|----------------------------------|-------------------------------------|
E|----------------------------------|-------------------------------------|
|
 |                       ~~~~~~
e|-15b17r15--15b17r==15-15pb17---15-|-15-17-15h17p15-12-12-10----10-------|
B|----------------------------------|-------------------------12----13-12-|
G|----------------------------------|-------------------------------------|
D|----------------------------------|-------------------------------------|
A|----------------------------------|-------------------------------------|
E|----------------------------------|-------------------------------------|


   G             F                        Am
e|--------------------------------------|-----------------------------|
B|--8------------6----(6)---------------|-10--------------------------|
G|--7------------5----(5)---------------|--9--------------------------|
D|--9------------7----(7)---------------|-10--------------------------|
A|--------------------------------------|-----------------------------|
E|--------------------------------------|-----------------------------|
|
e|--------------------------------------|-----------------------------|
B|-13-10-12---10---12-13--x-12-10-12-10-|--8-10-8---------------------|
G|----------9---------------------------|---------9-7-9-7-5-7-5-4-5p4h|
D|--------------------------------------|-----------------------------|
A|--------------------------------------|-----------------------------|
E|--------------------------------------|-----------------------------|


   F             G            Am            G   F
e|--------------------------|-------------|--------------||
B|-6-------------8-(8)------|-10----------|-8---6-(6)----||
G|-5-------------7-(7)------|--9----------|-7---5-(5)----||
D|-7-------------9-(9)------|-10----------|-9---7-(7)----||
A|--------------------------|-------------|--------------||
E|--------------------------|-------------|--------------||
|
e|--------------------------|-------------|--------------||
B|--------------------------|-------------|--------------||
G|-5p4h5p4h5p4h5-4-(4)-5-7--|--7b9r=======|=7------------||
D|--------------------------|-------------|--------------||
A|--------------------------|-------------|--------------||
E|--------------------------|-------------|--------------||


 [Pre-Chorus 3]
   C   G      D                        C   G      D
   Gtr I
e|---------------|-------------------|---------------|--------|
B|-5---3-(3)--7--|-(7)---------------|-5---3-(3)--7--|-(7)----|
G|-5---4-(4)--7--|-(7)---------------|-5---4-(4)--7--|-(7)----|
D|-5---5-(5)--7--|-(7)---------------|-5---5-(5)--7--|-(7)----|
A|---------------|--------5-3--------|---------------|--------|
E|---------------|------------5-3-5--|---------------|--------|
|
 | Gtr II
e|---------------|-------------------|---------------|--------|
B|-5---3-(3)--7--|-(7)---------------|-5---3-(3)--7--|-(7)----|
G|-5---4-(4)--7--|-(7)---------------|-5---4-(4)--7--|-(7)----|
D|-5---5-(5)--7--|-(7)---------------|-5---5-(5)--7--|-(7)----|
A|-3---5-(5)--5--|-(5)----5-3--------|-3---5-(5)--5--|-(5)----|
E|-----3-(3)-----|------------5-3-5--|-----3-(3)-----|--------|


   C   G      D                        C       G        D          Dm
e|---------------|-------------------|----------------------|----------||
B|-5---3-(3)--7--|-(7)---------------|--5-------3--(3)---7--|--(7)-----||
G|-5---4-(4)--7--|-(7)---------------|--5-------4--(4)---7--|--(7)-----||
D|-5---5-(5)--7--|-(7)---------------|--5-------5--(5)---7--|--(7)-----||
A|---------------|--------5-3--------|----------------------|----------||
E|---------------|------------5-3-5--|----------------------|----------||
|
e|---------------|-------------------|----------------------|----------||
B|-5---3-(3)--7--|-(7)---------------|-15b17---15-(15)--15--|-(15)-----||
G|-5---4-(4)--7--|-(7)---------------|----------------------|----------||
D|-5---5-(5)--7--|-(7)---------------|----------------------|----------||
A|-3---5-(5)--5--|-(5)----5-3--------|----------------------|----------||
E|-----3-(3)-----|------------5-3-5--|----------------------|----------||


 [Chorus 3]
     Am  C/A          G/A            Am              F
     Gtr I
                                                                         4x
e||-----------------|--------------|---------------|--8----7--(7)---5----||
B||o-5----8--(8)----|-3---8-(8)----|-1-3-5-6-5-3---|-10----8--(8)---6---o||
G||--5----9--(9)----|-4---7-(7)----|-2-4-5-7-5-4---|---------------------||
D||--7---10-(10)----|-5---9-(9)----|---------------|---------------------||
A||o----------------|--------------|---------------|-15---14-(14)--12---o||
E||-----------------|--------------|---------------|-17---15-(15)--13----||
|
 |   Gtr II
 |                                                                       4x
e||-----------------|--------------|---------------|---------------------||
B||o----------------|--------------|-1-3-5-6-5-3---|--1----0--(0)-------o||
G||--2----5--(5)----|-4---7-(7)----|-2-4-5-7-5-4---|--2----0--(0)---2----||
D||--2----5--(5)----|-5---5-(5)----|---------------|----------------3----||
A||o----------------|--------------|---------------|--------------------o||
E||-----------------|--------------|---------------|---------------------||


   Am        C/A              G/A
   Gtr I
e|--------------------------|-----------------------|
B|--5---------8--(8)--------|--3------8--(8)--------|
G|--5---------9--(9)--------|--4------7--(7)--------|
D|--7--------10-(10)--------|--5------9--(9)--------|
A|--------------------------|-----------------------|
E|--------------------------|-----------------------|
|
 | Gtr II
 |                                    ~~
e|--------20-----17---------|-----------------------|
B|--------------------20-17-|-18S17--15-(15)--17-15-|
G|-19b21--------------------|-----------------------|
D|--------------------------|-----------------------|
A|--------------------------|-----------------------|
E|--------------------------|-----------------------|
|
 | Gtr III
e|--------------------------|-----------------------|
B|--------------------------|-----------------------|
G|--2---------5--(5)--------|--4------7--(7)--------|
D|--2---------5--(5)--------|--5------5--(5)--------|
A|--------------------------|-----------------------|
E|--------------------------|-----------------------|


   Am                                   F
                                        Gtr I
e|------------------------------------|--8------7--(7)---5--|
B|--1-----3-----5-----6-----5-----3---|-10------8--(8)---6--|
G|--2-----4-----5-----7-----5-----4---|---------------------|
D|------------------------------------|-10------9--(9)------|
A|------------------------------------|-12-----10-(10)--12--|
E|------------------------------------|-----------------13--|
|
 |                                              ~~
e|------------------------------------|---------------------|
B|-15b17-15b17-15b17-15b17-15b17-13---|-15--13--------------|
G|------------------------------------|--------14-(14)--14--|
D|------------------------------------|---------------------|
A|------------------------------------|---------------------|
E|------------------------------------|---------------------|
|
e|------------------------------------|---------------------|
B|--1-----3-----5-----6-----5-----3---|--1------0--(0)------|
G|--2-----4-----5-----7-----5-----4---|--2------0--(0)---2--|
D|------------------------------------|------------------3--|
A|------------------------------------|---------------------|
E|------------------------------------|---------------------|


   Am      C/A                 G/A
e|---------------------------|----------------------------|
B|--5-------8-----(8)--------|--3------------8-(8)--------|
G|--5-------9-----(9)--------|--4------------7-(7)--------|
D|--7------10----(10)--------|--5------------9-(9)--------|
A|---------------------------|----------------------------|
E|---------------------------|----------------------------|
|
 |                                    ~~
e|-15b17---15b17r=15---15-12-|----------------------------|
B|---------------------------|-15b17r15-(15)--------13-15-|
G|---------------------------|----------------------------|
D|---------------------------|----------------------------|
A|---------------------------|----------------------------|
E|---------------------------|----------------------------|
|
e|---------------------------|----------------------------|
B|---------------------------|----------------------------|
G|--2-------5-----(5)--------|--4------------7-(7)--------|
D|--2-------5-----(5)--------|--5------------5-(5)--------|
A|---------------------------|----------------------------|
E|---------------------------|----------------------------|


   Am                                  F
e|-----------------------------------|--8-------7--(7)---5-----|
B|--1-------3----5------6--5----3----|-10-------8--(8)---6-----|
G|--2-------4----5------7--5----4----|-------------------------|
D|-----------------------------------|-10-------9--(9)---------|
A|-----------------------------------|-12------10-(10)--12-----|
E|-----------------------------------|------------------13-----|
|
e|-----------------------------------|-------------------------|
B|-15b17r15p==13-------------12---13-|-15-13-------------------|
G|-----------------14-(14)-----------|--------/14-(14)-----14--|
D|-----------------------------------|-------------------------|
A|-----------------------------------|-------------------------|
E|-----------------------------------|-------------------------|
|
e|-----------------------------------|-------------------------|
B|--1-------3----5------6--5----3----|--1-------0--(0)---------|
G|--2-------4----5------7--5----4----|--2-------0--(0)---2-----|
D|-----------------------------------|-------------------3-----|
A|-----------------------------------|-------------------------|
E|-----------------------------------|-------------------------|


   Am       C/A                G/A
e|---------------------------|--------------------------|
B|--5--------8--(8)----------|--3--------8-(8)----------|
G|--5--------9--(9)----------|--4--------7-(7)----------|
D|--7-------10-(10)----------|--5--------9-(9)----------|
A|---------------------------|--------------------------|
E|---------------------------|--------------------------|
|
e|-12-------12---------12----|----12-13----12-----------|
B|----13--------13--------13-|----------15-----13-12----|
G|-------14---------14-------|-14--------------------14-|
D|---------------------------|--------------------------|
A|---------------------------|--------------------------|
E|---------------------------|--------------------------|
|
e|---------------------------|--------------------------|
B|---------------------------|--------------------------|
G|--2--------5--(5)----------|--4--------7-(7)----------|
D|--2--------5--(5)----------|--5--------5-(5)----------|
A|---------------------------|--------------------------|
E|---------------------------|--------------------------|


   Am                     F
e|----------------------|--8------7--------(7)------------5---|
B|--1--3--5---6--5--3---|-10------8--------(8)------------6---|
G|--2--4--5---7--5--4---|-------------------------------------|
D|----------------------|-10------9--------(9)----------------|
A|----------------------|-12-----10-------(10)-----------12---|
E|----------------------|--------------------------------13---|
|
e|-12-13-15-/17-15------|-------------------------------------|
B|-----------------17---|-18-17--15h17p15h=17p=15h17p15-(15)--|
G|----------------------|-------------------------------------|
D|----------------------|-------------------------------------|
A|----------------------|-------------------------------------|
E|----------------------|-------------------------------------|
|
e|----------------------|-------------------------------------|
B|--1--3--5---6--5--3---|--1------0--------(0)----------------|
G|--2--4--5---7--5--4---|--2------0--------(0)------------2---|
D|----------------------|---------------------------------3---|
A|----------------------|-------------------------------------|
E|----------------------|-------------------------------------|


   Am        C/A                G/A
e|----------------------------|----------------------------------|
B|---5--------8--(8)----------|--3------------8--(8)-------------|
G|---5--------9--(9)----------|--4------------7--(7)-------------|
D|---7-------10-(10)----------|--5------------9--(9)-------------|
A|----------------------------|----------------------------------|
E|----------------------------|----------------------------------|
|
 |                                         ~~~~
e|-----15----17-(17)-12-------|----------------------------------|
B|----------------------15-13-|-13b15r13-(13)---(13)-12-15-13-12-|
G|-/14----14------------------|----------------------------------|
D|----------------------------|----------------------------------|
A|----------------------------|----------------------------------|
E|----------------------------|----------------------------------|
|
e|----------------------------|----------------------------------|
B|----------------------------|----------------------------------|
G|---2--------5--(5)----------|--4------------7--(7)-------------|
D|---2--------5--(5)----------|--5------------5--(5)-------------|
A|----------------------------|----------------------------------|
E|----------------------------|----------------------------------|


   Am                                     F
e|--------------------------------------|--8--------7--(7)---5--|
B|--1-----3-----5-----6-------5----3----|-10--------8--(8)---6--|
G|--2-----4-----5-----7-------5----4----|-----------------------|
D|--------------------------------------|-10--------9--(9)------|
A|--------------------------------------|-12-------10-(10)--12--|
E|--------------------------------------|-------------------13--|
|
e|--------------------------------------|----13-15-17-(17)------|
B|-15b17-15b17-15b17-15b17r15---13------|-13--------------------|
G|-----------------------------------14-|-----------------------|
D|--------------------------------------|-----------------------|
A|--------------------------------------|-----------------------|
E|--------------------------------------|-----------------------|
|
e|--------------------------------------|-----------------------|
B|--1-----3-----5-----6-------5----3----|--1--------0--(0)------|
G|--2-----4-----5-----7-------5----4----|--2--------0--(0)---2--|
D|--------------------------------------|--------------------3--|
A|--------------------------------------|-----------------------|
E|--------------------------------------|-----------------------|


   Am             C/A              G/A
e|-------------------------------|------------------------------|
B|--5--------------8--(8)--------|--3----------8--(8)-----------|
G|--5--------------9--(9)--------|--4----------7--(7)-----------|
D|--7-------------10-(10)--------|--5----------9--(9)-----------|
A|-------------------------------|------------------------------|
E|-------------------------------|------------------------------|
|
e|-17-12-------17-12-(12)--------|------------------------------|
B|-------13----------------13-12-|-12pb13r12--13-(13)--12h13p12-|
G|----------14-------------------|------------------------------|
D|-------------------------------|------------------------------|
A|-------------------------------|------------------------------|
E|-------------------------------|------------------------------|
|
e|-------------------------------|------------------------------|
B|-------------------------------|------------------------------|
G|--2--------------5--(5)--------|--4----------7--(7)-----------|
D|--2--------------5--(5)--------|--5----------5--(5)-----------|
A|-------------------------------|------------------------------|
E|-------------------------------|------------------------------|


   Am                    F
e|---------------------|--8-------7--(7)---5---|
B|--1-3-5---6---5--3---|-10-------8--(8)---6---|
G|--2-4-5---7---5--4---|-----------------------|
D|---------------------|-10-------9--(9)-------|
A|---------------------|-12------10-(10)--12---|
E|---------------------|------------------13---|
|
e|---------------------|-----------------------|
B|---------------------|-----------------------|
G|-14-----(14)-12-14---|-14b16r======14--------|
D|---------------------|-----------------------|
A|---------------------|-----------------------|
E|---------------------|-----------------------|
|
e|---------------------|-----------------------|
B|--1-3-5---6---5--3---|--1-------0--(0)-------|
G|--2-4-5---7---5--4---|--2-------0--(0)---2---|
D|---------------------|-------------------3---|
A|---------------------|-----------------------|
E|---------------------|-----------------------|


   Am       C/A                G/A
e|---------------------------|------------------------------|
B|--5--------8--(8)----------|--3--------------8-(8)--------|
G|--5--------9--(9)----------|--4--------------7-(7)--------|
D|--7-------10-(10)----------|--5--------------9-(9)--------|
A|---------------------------|------------------------------|
E|---------------------------|------------------------------|
|
e|----12----12--12-----------|-13-12h13p12----12------------|
B|------------------13----13-|-------------15----12--13-12--|
G|-14----14------------14----|------------------------------|
D|---------------------------|------------------------------|
A|---------------------------|------------------------------|
E|---------------------------|------------------------------|
|
e|---------------------------|------------------------------|
B|---------------------------|------------------------------|
G|--2--------5--(5)----------|--4--------------7-(7)--------|
D|--2--------5--(5)----------|--5--------------5-(5)--------|
A|---------------------------|------------------------------|
E|---------------------------|------------------------------|


   Am                         F
e|--------------------------|--8--------7-----(7)---5------|
B|--1----3---------5-6-5-3--|-10--------8-----(8)---6------|
G|--2----4---------5-7-5-4--|------------------------------|
D|--------------------------|-10--------9-----(9)----------|
A|--------------------------|-12-------10----(10)--12------|
E|--------------------------|----------------------13------|
|
e|--------------------------|----------------------15b17---|
B|-13p12--------------------|----12-13-12-13-(13)----------|
G|---------14-(14)----------|-14---------------------------|
D|--------------------------|------------------------------|
A|--------------------------|------------------------------|
E|--------------------------|------------------------------|
|
e|--------------------------|------------------------------|
B|--1----3---------5-6-5-3--|--1--------0-----(0)----------|
G|--2----4---------5-7-5-4--|--2--------0-----(0)---2------|
D|--------------------------|-----------------------3------|
A|--------------------------|------------------------------|
E|--------------------------|------------------------------|


   Am          C/A                 G/A
e|-------------------------------|-----------------------------------------|
B|---5----------8--(8)-----------|--3-----------------8-(8)----------------|
G|---5----------9--(9)-----------|--4-----------------7-(7)----------------|
D|---7---------10-(10)-----------|--5-----------------9-(9)----------------|
A|-------------------------------|-----------------------------------------|
E|-------------------------------|-----------------------------------------|
|
e|-(15)--15b17-----15b17--15b17--|-15b17-15b17--15b17---15b17-15b17--15b17-|
B|-------------------------------|-----------------------------------------|
G|-------------------------------|-----------------------------------------|
D|-------------------------------|-----------------------------------------|
A|-------------------------------|-----------------------------------------|
E|-------------------------------|-----------------------------------------|
|
e|-------------------------------|-----------------------------------------|
B|-------------------------------|-----------------------------------------|
G|---2----------5--(5)-----------|--4-----------------7-(7)----------------|
D|---2----------5--(5)-----------|--5-----------------5-(5)----------------|
A|-------------------------------|-----------------------------------------|
E|-------------------------------|-----------------------------------------|


   Am                                      F
e|---------------------------------------|--8------------7-----(7)----------5--------*|
B|--1-----3-----5-----6-----5-----3------|-10------------8-----(8)----------6--------*|
G|--2-----4-----5-----7-----5-----4------|-------------------------------------------*|
D|---------------------------------------|-10------------9-----(9)-------------------*|
A|---------------------------------------|-12-----------10----(10)---------12--------*|
E|---------------------------------------|---------------------------------13--------*|
|
e|-15b17-15b17-15b17-15b17-15b17-15b17---|-15b17--15b17-15b17--15b17-15b17----15b17--*|
B|---------------------------------------|-------------------------------------------*|
G|---------------------------------------|-------------------------------------------*|
D|---------------------------------------|-------------------------------------------*|
A|---------------------------------------|-------------------------------------------*|
E|---------------------------------------|-------------------------------------------*|
|
e|---------------------------------------|-------------------------------------------*|
B|--1-----3-----5-----6-----5-----3------|--1------------0-----(0)-------------------*|
G|--2-----4-----5-----7-----5-----4------|--2------------0-----(0)----------2--------*|
D|---------------------------------------|----------------------------------3--------*|
A|---------------------------------------|-------------------------------------------*|
E|---------------------------------------|-------------------------------------------*|


Misc Legend
-----------
 |  - bar
||  - double bar
||o - repeat start
o|| - repeat end
*|  - double bar (ending)
 :  - bar (freetime)
 $  - Segno
 &  - Coda


************************************

| (n)  Ghost note
| /    Slide up
| r    Release
| b    Bend
| ~    Vibrato
| pb   Pre-bend
| p    Pull-off
| h    Hammer-on
| x    Dead note
| *    Natural harmonic   

************************************

            
            
Suggest correction
Creating personal tab
Creating personal tab
You can edit any tab online and save it as your Personal.

You can edit, replace or remove any tab part or add personal notes – all changes will be seen only by you.

Personal tabs can be accessed anytime from any device, even offline.
Learn more »
comments
print report bad tab
1 comment total.
0 reply
monkey_xxx2003 660 Mar 03, 2005 07:00 PM

this tab is pretty good.

great song eh, i havent heard it though in like...eight years
sucks.

guest
You may want to rate the tab now too:
select rating
Wanna post a correction for this tab? Suggest correction