Oops, an error
Loading. Please wait.

Temple Of The King Tab

version 1
version 1

Whole song

Interactive

by Rainbow
341,717 views 726 this week
12 commentsread comments
1 2 3 4 5
x 66
add to favorites
×
Save as Personal and add changes to this tab that will be seen only by you. Learn more ›
×
You can save this tab as Personal to edit and correct it or add notes. All changes will be seen only by you. Learn more »
save as personal
new!
launch autoscroll
font size
0
reset
how to read this tab
guitar tuner
Autoscroll
slow
fast
+/-
esc
set tempo
stop
Temple of the king(Rainbow)

[INTRO]

e------0-0----------------------------------------------------------|
B-----5-5---3-5-3-----1-3-1--------3-3---3p5r3---1-3-1--------------|
G--------------------------------2-----------------------------2----|
D-------------------------------------------------------------------|
A-------------------------------------------------------------------|
E-------------------------------------------------------------------|

e-----0-0-----------------------------------------------------------|
B----5-5---3-5-3--------1-3-1------3-3---3p5r3---1-3-1--------------|
G----------------------------------2----------------------------2---|
D-------------------------------------------------------------------|
A-------------------------------------------------------------------|
E-------------------------------------------------------------------|
The INTRO chords run like this( Am / F / G / Am Am / G /Dm-F/ Am)


[FILL]

e----------------------------------|
B----------------------------------|
G----------------------------------|
D---------------2-0----------------|
A-----0---2-3-------2-3------------|
E----------------------------------|


C                G  
  One day in the year of the fox
        Dm              Am
Came a time remembered well
         F
When the strong young man
        G
Of the rising sun heard the
Am
Tolling of the great black bell

(FILL)
C                G
  One day in the year of the fox when the
E             Am        
Bell began to ring, it meant the
F                     G 
Time had come for the one to go to the
Am
Temple of the King


Dm
There in the middle of the circle, he stands
Am
Searching, Seeking,
      G         
With just one touch of his trembling hand
     Am 
The answer will be found


Dm
Daylight waits for the oldman\\\'s scream
Am      
Heaven, help me,
G        Dm
Just like a rush of thousand wings 
    E
It shines upon the world
        F       G       Am     
And the day has just begun


[Repeat INTRO]
[(FILL)]


C                G
  One day in the year of the fox
        Dm              Am
Came a time remembered well
          F     
When the strong young man
        G
Of the rising sun heard the
Am
Tolling of the great black bell

[(FILL)]

C                G
  One day in the year of the fox when the
E             Am        
Bell began to ring, it meant the
F                     G 
Time had come for the one to go to the
Am
Temple of the King

Dm
There in the middle of people he stands
Am
Seeking, feeling
          G
Just one touch of the strong right hand
      E
He\\\'s gone, to the 
F      G      Am
Temple of the King

[Intro:]
[SOLO] (here I’m gonna type only for the first and second string,for I only use the 1st and 2nd strings only)

e----3-----1----3---5------8^-----------5---3--5---8---10---12^----------|
B-----------------------------------5------------------------------------|
G------------------------------------------------------------------------|
D------------------------------------------------------------------------|
A------------------------------------------------------------------------|
E------------------------------------------------------------------------|


e----12^--8—10^------8—10—10---------12b-7----7-8----7-8----------------|
B-------------------------------------------------------------------6---|
G-----------------------------------------------------------------------|
D-----------------------------------------------------------------------|
A-----------------------------------------------------------------------|
E-----------------------------------------------------------------------|

e----------------------8----10/12---------12b---7-----------------------|
B---6---8----10----------------------------------------6—8------5-------|
G-----------------------------------------------------------------------|
D-----------------------------------------------------------------------|
A-----------------------------------------------------------------------|
E-----------------------------------------------------------------------|


e----------5----7--8------10^-------7--8---10----12^--------13^----------|
B----5-------------------------------------------------------------------|
G------------------------------------------------------------------------|
D------------------------------------------------------------------------|
A------------------------------------------------------------------------|
E------------------------------------------------------------------------|


(Solo chords: Am / F / Am / F / Am
        G / Dm / E / Am / F / Am / F
        Am / G / Dm / E)


Dm      
Far from the circle of the edge of the world
      Am        
He\\\'s smoking, wandering
G                       
Thinking back of the stories he\\\'s told
       Am
Before he\\\'s gonna see
Dm
There in the middle of the circle he lies
Am
Heaven, help me
G                Dm
All could see by the shine in his eyes
     E  
The answer has been found

Dm
Back with the people in the circle he stands
Am
Seeing, feeling
     G                   Dm                        E    
With just one touch of the strong right hand they know
        F      G      Am                        
Of the Temple and the King 


[Intro]

Arpeggio: F - E - Am:
(I cant figure out the end, but I think this is how the chord he plays and there are some guitar run
in the song but I cant figure it out.)



************************************

| p  Pull-off
| r  Release
| b  Bend
| /  Slide up

************************************
Suggest correction
comments
print report bad tab
12 comments total. Showing first comments.
+1 reply
static_121 10 Mar 20, 2007 01:01 AM

sexy tab dude...way to go!!!

-2 reply
angusrokks 60 May 27, 2008 02:52 AM

Just use the same notes but on lower strings...

+1 reply
janley 10 Jan 15, 2010 04:09 AM

I agree, this tab is sexy.
Bujini.

guest
Wanna post a correction for this tab? Suggest correction