Oops, an error
Loading. Please wait.

Temple Of The King tab

version 4
version 4

Whole song

Interactive

by Rainbow
313 views 1 this week
no commentswrite comment
1 2 3 4 5
2 more votes to show rating
add to favorites
×
Save as Personal and add changes to this tab that will be seen only by you. Learn more ›
×
You can save this tab as Personal to edit and correct it or add notes. All changes will be seen only by you. Learn more »
launch autoscroll
font size
0
reset
how to read this tab
guitar tuner
edit
Autoscroll
slow
fast
+/-
esc
set tempo
stop
Author
Difficulty
About this tab version
This tab has the correct lyrics and with the optional riffs. Was this info helpful? Yes No
TEMPLE OF THE KING by Rainbow
------------------
Tabbed by Buenofine Calse

[Intro]
e|---------------------------|-----------------------------|
B|---------------------------|-----------------------------|
G|--b9--b9--7h9p7----7-------|---b7--b7--7h9p7----7--------|
D|----------------10---10--7-|-7---------------10---10--7--|
A|---------------------------|-----------------------------|
e|---------------------------|-----------------------------|

e|---------------------------|-----------------------------|
B|---------------------------|-----------------------------|
G|--b9--b9--7h9p7----7-----7-|-7--7h9p7----7---------------|
D|----------------10---10--7-|----------10---10--7---------|
A|---------------------------|-----------------------------|
E|---------------------------|-----------------------------|

e|---------------------------|
B|---------------------------|
G|---------------------------|
D|---------------------------|
A|--------7\5----------------|
E|--5h7/8-----7/8------------|

[Verse]
C                G
  One day in the year of the fox
        Dm              Am
Came a time remembered well
         F
When the strong young man
        G
Of the rising sun heard the
Am
Tolling of the great black bell

[Bass Fill]
    C
e|---------------------------|
B|---------------------------|
G|---------------------------|
D|--------2p0----------------|
A|--0h2h3-----2--3-----------|
E|---------------------------|

C                G
  One day in the year of the fox when the
E             Am
Bell began to ring, it meant the
F                 G
Time had come for one to go to the
Am
Temple of the King

Dm
There in the middle of the circle, he stands
Am
Searching, seeking,
      G
With just one touch of his trembling hand
     Am
The answer will be found

Dm
Daylight waits while the oldman sings
Am
"Heaven, help me!"
G                           Dm
And then like the rush of a thousand wings
    E
It shines upon the one
        F       G      Am
And the day has just begun


[Instrumental]

Am / F / G / Am
Am / G /Dm-F/ Am

[Bass Fill]
    C
e|---------------------------|
B|---------------------------|
G|---------------------------|
D|--------2p0----------------|
A|--0h2h3-----2--3-----------|
E|---------------------------|

C                 G
  One day in the year of the fox
        Dm              Am
Came a time remembered well
          F
When the strong young man
        G
Of the rising sun heard the
Am
Tolling of the great black bell

[Bass Fill]
    C
e|---------------------------|
B|---------------------------|
G|---------------------------|
D|--------2p0----------------|
A|--0h2h3-----2--3-----------|
E|---------------------------|

C                G
  One day in the year of the fox when the
E             Am
Bell began to sing, it meant the
F                     G
Time had come for the one to go to the
Am
Temple of the King

Dm
There in the middle of people he stands
Am
Seeing, feeling,
             G
With just a wave of the strong right hand
      E
He's gone, to the
F      G      Am
Temple of the King

[Repeat Intro]

[Solo]
e|----------------8----|--------------8---10--b12------------|
B|--8------8--10-------|--10---8--10-------------------------|
G|------10----------9--|-------------------------------------|
D|---------------------|-------------------------------------|
A|---------------------|-------------------------------------|
E|---------------------|-------------------------------------|

e|--b12--8--b10---8--10--10--|--b12--------------------------|
B|---------------------------|------12---12--13---12--13-----|
G|---------------------------|---------------------------10--|
D|---------------------------|-------------------------------|
A|---------------------------|-------------------------------|
E|---------------------------|-------------------------------|

e|----------------10--12-|--b12------------------------------|
B|---------10--13--------|------12---------------------------|
G|--10--12---------------|----------10--12--9----------------|
D|-----------------------|-----------------------------------|
A|-----------------------|-----------------------------------|
E|-----------------------|-----------------------------------|

e|----------------b10--|----------10---b12---b13-------------|
B|-----10--12--13------|--12--13-----------------------------|
G|--9------------------|-------------------------------------|
D|---------------------|-------------------------------------|
A|---------------------|-------------------------------------|
E|---------------------|-------------------------------------|

Dm
Far from the circle at the edge of the world
      Am
He's hoping, wondering
G
Thinking back on the stories he's heard
        Am
Of what he's gonna see
Dm
There in the middle of the circle it lies
Am
"Heaven, help me!"
G                         Dm
Then all could see by the shine in his eyes
     E
The answer had been found

Dm
Back with the people in the circle he stands
Am
Giving, feeling
     G                    Dm                    E
With just one touch of a strong right hand they know
        F      G      Am
Of the Temple and the King

[Instrumental]
Am / F / G / Am
Am / G /Dm-F/ Am

[Arpeggio]
F - E - Am

/buend.
************************************

| h   Hammer-on
| p   Pull-off
| b   Bend
| /   Slide up
| \   Slide down

************************************

            
            
Suggest correction
Creating personal tab
Creating personal tab
You can edit any tab online and save it as your Personal.

You can edit, replace or remove any tab part or add personal notes – all changes will be seen only by you.

Personal tabs can be accessed anytime from any device, even offline.
Learn more »
Give kudos to tab author, rate the tab!
1 2 3 4 5
comments
print report bad tab
guest
You may want to rate the tab now too:
select rating
Wanna post a correction for this tab? Suggest correction