Oops, an error
Loading. Please wait.

Mar Y Cielo tab

28 views 1 this week
no commentswrite comment
1 2 3 4 5
3 more votes to show rating
add to favorites
×
Save as Personal and add changes to this tab that will be seen only by you. Learn more ›
×
You can save this tab as Personal to edit and correct it or add notes. All changes will be seen only by you. Learn more »
launch autoscroll
font size
0
reset
how to read this tab
guitar tuner
edit
Autoscroll
slow
fast
+/-
esc
set tempo
stop
Esta buena cancion originalmente interpretada
por el trio "Los Panchos" pero ahora en verrsión bachata/bolero
al estilo del gran musico José Feliciano
y el duo romantico "Rakim y Ken-Y"...
Esto es todo lo que lleva la cancion :)
espero que les guste.
salu2


Dm
Pero en mi corazón
                       A7
que es el que siente amor,

tan solo mando yo...


Intro:

                Dm                                     A7
e||------------------------------------------------------------|
B||------------------------------------------------------------|
G||----------9--10----10-10-10----10-10-10--10-10-10-------9---|
D||------12-------------------------------------------12-------|
A||--12--------------------------------------------------------|
E||------------------------------------------------------------|

                                                  Dm
e||----------------------------------------------------|
B||----------------------------------------------------|
G||--9--10--12--12------12-12-12----12-12-12--12-12-10-|
D||----------------------------------------------------|
A||----------------------------------------------------|
E||----------------------------------------------------|

   Dm
e||----------------------------------------------------|
B||-----------------10------------10--10------10-10-10-|
G||9-12--10-9-10-12-------10--12-----------------------|
D||----------------------------------------------------|
A||----------------------------------------------------|
E||----------------------------------------------------|

                       Gm
e||----------------------------------------------|
B||---10-10-10---10-10--------10----------10-11--|
G||--------------------12--10----12-10-12--------|
D||----------------------------------------------|
A||----------------------------------------------|
E||----------------------------------------------|

(Esta parte es a 2 guitarras)

Guitarra 1:
                   Dm                    A7
e||-----12-10-9-12-10---10-12-13---13-10-12---|
B||-------------------------------------------|
G||-------------------------------------------|
D||-------------------------------------------|
A||-------------------------------------------|
E||-------------------------------------------|


                     Dm     A7    Dm
e||--12-10-9---10-12-10-----9-----10--||
B||-----------------------------------||
G||-----------------------------------||
D||-----------------------------------||
A||-----------------------------------||
E||-----------------------------------||

Guitarra 2:

e||-----10-8-7-10-8---8-10-11---11-8-10---|
B||---------------------------------------|
G||---------------------------------------|
D||---------------------------------------|
A||---------------------------------------|
E||---------------------------------------|


e||--10-8-7---8-10-8-----7-----8--||
B||-------------------------------||
G||-------------------------------||
D||-------------------------------||
A||-------------------------------||
E||-------------------------------||

___________

Riff:

e||------3-1-0--------||
B||--2-3-------3-2----||
G||-------------------||

____________


     Dm
Me tienes...
                   A7
(Pero de nada te vale)
A7
Soy tuyo... [Riff]
                     Dm
porque lo dicta un papel...

    D7
MI vida
                   Gm
La controlan las leyes..
                Dm
pero en mi corazón
                       A7
que es el que siente amor
                Dm
tan sólo mando yo...


[Se repite la figura del intro]


A7
El mar y el cielo
                  Dm
se ven igual de azules,
               A7
que en la distancia
               Dm
parece que se unen...

                D7
Mejor esque recuerdes
                          Gm
que el cielo siempre es cielo,
                 E
que nunca nunca nunca,
        A7
el mar lo alcanzará...

    Gm                       Dm
Permíteme igualarme con el cielo,
     A7                   Dm  A7-Dm
y a ti te corresponde ser el mar...


(Pero en mi corazón)
Dm                              A7
Pero en mi corazón mira, de nada te vale,
(Tan sólo mando yo)
                     Dm
soy tuyo, porque lo dicta un papel...
(Pero en mi corazón)
                A7
mi vida la controlan las leyes...
(Tan sólo mando yo)

Dm
Tan sólo mando yo...


* Intermedio *


    <------------ Esto es rápido ---------->
     Dm                                             A7
e||----------------------------------------------------------------|
B||----------------------------------------------------------------|
G||--------------------------------------------9-10-12---9-10-12---|
D||--12-12-12-12-12-12-12-12-12-12-12-12-12-12---------------------|
A||----------------------------------------------------------------|
E||----------------------------------------------------------------|
           "Mi vida mi vida la controlan las leyes...."

     A7                                              Dm
e||----------------------------------------------------------------|
B||--------------------------------------------------10---------10-|
G||--12-12-12-12-12-12-12-12-12-12-12-12-12-12-10-12------10-12----|
D||----------------------------------------------------------------|
A||----------------------------------------------------------------|
E||----------------------------------------------------------------|
        "de nada me vale porque a mi ya me tienes..."

                                 Gm
e||--10---10--------------------------------------------10----|
B||------------13---13---10---11-10---------10-11---13--------|
G||---------------------------------12---12-------------------|
D||-----------------------------------------------------------|
A||-----------------------------------------------------------|
E||-----------------------------------------------------------|
   y a mi vida juro que la mando yo...

                   Dm                    A7
e||-----12-10-9-12-10---10-12-13---13-10-12---|
B||-------------------------------------------|
G||-------------------------------------------|
D||-------------------------------------------|
A||-------------------------------------------|
E||-------------------------------------------|
   juro que la mando yo...

                     Dm     A7    Dm
e||--12-10-9---10-12-10-----9-----10--||
B||-----------------------------------||
G||-----------------------------------||
D||-----------------------------------||
A||-----------------------------------||
E||-----------------------------------||


(Tan sólo.. mando yo)


A7
y el mar y el cielo
                  Dm
se ven igual de azules,
               A7
que en la distancia
               Dm
parece que se unen...

                D7
Mejor esque recuerdes
                          Gm
que el cielo siempre es cielo,
                 E
que nunca nunca nunca,
        A7
el mar lo alcanzará...

    Gm                       Dm
Permíteme igualarme con el cielo, [Riff]
     A7                   Dm
y a ti te corresponde ser el mar...
    Gm                       Dm
Permíteme igualarme con el cielo,
     A7                         Dm
y a ti te corresponde... ser el mar...


Mi vida mi vida la controlan las leyes...


[ Se repite la misma figura del Intro ]


--------------------------------------------------


            by:
      *[The LiRoMaN]*
-Professional Air Guitarist-


Saludos desde Acapulco :P

[  ] ;D


Cualquier duda o aclaracion a:
liro_axel27@ :)
Suggest correction
Creating personal tab
Creating personal tab
You can edit any tab online and save it as your Personal.

You can edit, replace or remove any tab part or add personal notes – all changes will be seen only by you.

Personal tabs can be accessed anytime from any device, even offline.
Learn more »
Give kudos to tab author, rate the tab!
1 2 3 4 5
comments
print report bad tab
guest
Wanna post a correction for this tab? Suggest correction