Oops, an error
Loading. Please wait.

Te Regalo Amores tab

version 1
version 1

Whole song

74 views 1 this week
no commentswrite comment
1 2 3 4 5
3 more votes to show rating
add to favorites
×
Save as Personal and add changes to this tab that will be seen only by you. Learn more ›
×
You can save this tab as Personal to edit and correct it or add notes. All changes will be seen only by you. Learn more »
launch autoscroll
font size
0
reset
how to read this tab
guitar tuner
edit
Autoscroll
slow
fast
+/-
esc
set tempo
stop
ATENCION :
Esta es la versión 100% CORRECTA...
el intro que les pongo es EXACTAMENTE IGUAL al de la canción.
está un poquito complicado al principio,
pero con mucha práctica se te hará más fácil :D


   D                      Esus4                 Bm
                    uhhhhhhhhh....

e||----------0--0h2-------------------0---------------------2---------
B||-------3------------------------0-------0-------------3-------3----
G||----2-------------2----------2---------------------4-------------2-
D||-0------------------------2---------------------4------------------
A||-----------------------0-------------------0-2---------------------
E||-------------------------------------------------------------------

   G           Esus4
e|----------3--------------|
B|-------3--------------0--|
G|-------------------2-----|
D|----5-----------2--------|
A|-------------0-----------|
E|-3-----------------------|


  D                         Esus4                  Bm
             Te he visto sufriendo tan solita y triste...
e|-----------0--0h2----------------------0---------------------2----
B|--------3-------------3-------------0-------0-------------3-----3-
G|-----2-------------2-------------2---------------------4----------
D|--0---------------------------2---------------------4-------------
A|---------------------------0-------------------0-2----------------
E|------------------------------------------------------------------

  G
e|----------------3------------|
B|----------3------------3-----|
G|-----------------------------|
D|-------5-----5------------5--|
A|--5--------------------------|
E|----3------------------------|


  D                        Esus4               G
             Sé que vives sintiendo que un amor perdiste...
e|-----------0h2-----------------------0-------------------3------------3-|
B|--------3----------3--------------0---------0-----------------3----3--3-|
G|-----2----------2--------------2----------------------4---------------4-|
D|--0-------------------------2----------------------5------------------5-|
A|-------------------------0--------------------------------------------5-|
E|------------------------------------------------3-----------------------|


  D                        Esus4
           Te regalo un beso y mil razones
e|-----------0--0h2--------------------0-------
B|--------3-------------3-----------0-------0--
G|-----2-------------2-----------2-------------
D|--0-------------------------2----------------
A|-------------------------0-------------------
E|---------------------------------------------

    G                                      D
       para amarte tanto...  te regalo tanto...
-------------3---------3-|
----------3-------3----3-|
-----------------------4-|
-------5---------------5-|
-----------------------5-|
----3--------------------|


    D                     Bm
...tanto              prometo así secar  tu...
e|-----------0--0h2-------------------2--------2---
B|--------3------------------------3--------3------
G|-----2-------------2----------4------------------
D|--0------------------------4-----------4---------
A|------------------------2------------------------
E|-------------------------------------------------


 G                   A
...llantoo... ohhh...    te regalo amores................
----------3----------5-||
-------3---------3---5-||
---------------------6-||
----5----------------7-||
---------------------7-||
-3---------------------||


---

Esus4
e||--0--||
B||--0--||
G||--2--||
D||--2--||
A||--0--||
E||-----||

---


RASGUEO:

Ya sabrán que después del intro,
los acordes se convierten en una simple rutina:
D - Bm - G - A

el rasgueo que lleva toda la canción
son contratiempos al ritmo de la tarola de un reggaeton

- Rasgueado hacia arriba
- Solo se tocan las primeras 4 cuerdas
- 2 pares de rasgueos por cada tono


D-D x  D-D x,  Bm-Bm x  Bm-Bm x, G-G x  G-G x , A-A x   A-A x....

(x = pausa/ahogar las cuerdas con la palma)


Sugerencia: Para que se escuche mejor,
puedes llenar con tapones (pausas con la mano)
de esta forma:

1 rasgueo/Pausa/1 rasgueo/pausa

todo a contratiempos y al ritmo de un reggaeton.
(aunque esta canción es vallenato)


en el promo que hace ken-y al final,
es un rasgueo lento hacia abajo por cada tono,
con todas las cuerdas...


espero me hayan entendido :)

No habrá otra transcripción que supere a ésta porque es 100% correcta :P


--------------------------------------------------


            by:
      *[The LiRoMaN]*
-Professional Air Guitarist-


Saludos desde Acapulco :P

[  ] ;D
Suggest correction
Creating personal tab
Creating personal tab
You can edit any tab online and save it as your Personal.

You can edit, replace or remove any tab part or add personal notes – all changes will be seen only by you.

Personal tabs can be accessed anytime from any device, even offline.
Learn more »
Give kudos to tab author, rate the tab!
1 2 3 4 5
comments
print report bad tab
guest
Wanna post a correction for this tab? Suggest correction