Oops, an error
Loading. Please wait.

Motorway Tab

83 views 3 this week
no commentswrite comment
1 2 3 4 5
please rate
add to favorites
launch autoscroll
font size
0
reset
how to read this tab
guitar tuner
Autoscroll
slow
fast
+/-
esc
set tempo
stop
Help us to improve Ultimate-Guitar.com Take our survey!
×
Contributor
Donahue2 418
Band: Rally Car
Song: Motorway
Album: Gear Down
Label: Q Ball Records
Tabbed by: Donahue2

Tuning: Standard (EADGBe)

INTRO:
e|--------------------|
B|--------------------|
G|--------------------|X4
D|--555\2-xxxxxxxxxx--|
A|--555\2-xxxxxxxxxx--|
E|--333\0-xxxxxxxxxx--|

VERSE:
e|---------------------|
B|---------------------|
G|---------------------|X3
D|--555\2-xxxxxxxxxxx--|
A|--555\2-xxxxxxxxxxx--|
E|--333\0-xxxxxxxxxxx--|

(On fourth time):
e|--------------|
B|--------------|
G|--------------|
D|--55-555-555--|
A|--55-555-555--|
E|--33-333-333--|
"I've gotta tell you something,
 So get in the car,
 A love like this drives us,
 But it wont take us far."

CHORUS: (Guitar 1)
e|----------------------------------|
B|----------------------------------|
G|----------------------------------|X4
D|--7-7-777--5-5-555--3-3-333-3333--|
A|--7-7-777--5-5-555--3-3-333-3333--|
E|--5-5-555--3-3-333--1-1-111-1111--|

(Guitar 2)
e|-------------------------------------|
B|-------------------------------------|
G|--9-9-999--7-777777--5-5-555-5-5-55--|
D|--x-x-xxx--x-xxxxxx--x-x-xxx-x-x-xx--|
A|--7-7-777--5-555555--3-3-333-3-3-33--|
E|-------------------------------------|

e|----------------------------------------------------------|
B|----------------------------------------------------------|
G|--9-9-999--12-12-12-12-12--10-10-10-10-10--12--10--9--10--|
D|--x-x-xxx--x--x--x--x--x---x--x--x--x--x---x---x---x--x---|
A|--7-7-777--10-10-10-10-10--8--8--8--8--8---10--8---7--8---|
E|----------------------------------------------------------|

e|-------------------------------------|
B|-------------------------------------|
G|--9-9-999--7-777777--5-5-555-5-5-55--|
D|--x-x-xxx--x-xxxxxx--x-x-xxx-x-x-xx--|
A|--7-7-777--5-555555--3-3-333-3-3-33--|
E|-------------------------------------|

e|--------------------------------------------------------|
B|--------------------------------------------------------|
G|--9-9-999--12-12-12-12-12--10-10-10-10-10-10--9--7--9~--|
D|--x-x-xxx--x--x--x--x--x---x--x--x--x--x--x---x--x--x~--|
A|--7-7-777--10-10-10-10-10--8--8--8--8--8--8---7--5--7~--|
E|--------------------------------------------------------|
"So take me down, I wanna go,
 Drive you fast to that place we want to go,
 And is it love lost to you? (I am so frustrated, I am so frustrated)
 Leave me fast...Lost...(I am so frustrated, I am so frustrated)"

BRIDGE
e|--------------------------------------------------|
B|--------------------------------------------------|
G|--------------------------------------------------|
D|--77--xx-xx-xx--555--xx-xx-xx--3-3-3-3-3-3-3-555--|
A|--77--xx-xx-xx--555--xx-xx-xx--3-3-3-3-3-3-3-555--|
E|--55--xx-xx-xx--333--xx-xx-xx--1-0-1-0-1-0-1-333--|

BREAKDOWN: (Guitar 1)
e|------------------------------------|
B|------------------------------------|
G|------------------------------------|X3
D|--3-3-333-3-3-3-3--7-7-777-7-7-7-7--|
A|--3-3-333-3-3-3-3--7-7-777-7-7-7-7--|
E|--1-1-111-1-1-1-1--5-5-555-5-5-5-5--|

(On fourth time):
e|---------------------------------------------|
B|---------------------------------------------|
G|---------------------------------------------|
D|--3-3-333-3-3-3-3--7-7-777--5-5-555-5-5-555--|
A|--3-3-333-3-3-3-3--7-7-777--5-5-555-5-5-555--|
E|--1-1-111-1-1-1-1--5-5-555--3-3-333-3-3-333--|

(Guitar 2)
e|-------------------------------------|
B|-------------------------------------|
G|-------------------9999999999999999--|X3
D|--3-3-333-3-3-3-3--xxxxxxxxxxxxxxxx--|
A|--3-3-333-3-3-3-3--7777777777777777--|
E|--1-1-111-1-1-1-1--------------------|

(On fourth time):
e|-------------------------------------------|
B|-------------------------------------------|
G|-------------------9-9-999--7-7-777-7-7-7--|
D|--3-3-333-3-3-3-3--x-x-xxx--x-x-xxx-x-x-x--|
A|--3-3-333-3-3-3-3--7-7-777--5-5-555-5-5-5--|
E|--1-1-111-1-1-1-1--------------------------|
"And I'm running out of fuel, I am not frustrated,
 When it's raining out I'm cool, I am so frustrated,
 And I am so frustrated... I am so frustrated..."

VERSE2:
"I've gotta get inside you,
 Inside your mind,
 To see what you're thinking,
 About me this time."

CHORUSx2:
"Take me down, I wanna go,
 Drive you fast to that place we want to go,
 And is it love lost to you? (I am so frustrated, I am so frustrated)
 Leave me fast... lost...(I am so frustrated, I am so frustrated)"

OUTRO: (Play half of the chorus then switch to):
(Guitar1)
e|------------------------------------------|
B|------------------------------------------|
G|-------------------------55-555-55-55-55--|
D|--3-3-3-3-3-3--5555--7~--xx-xxx-xx-xx-xx--|
A|--3-3-3-3-3-3--5555--7~--33-333-33-33-33--|
E|--1-0-1-0-1-0--3333--5~-------------------|

(Guitar 2)
e|-------------------------------------------------------------------------|
B|-------------------------------------------------------------------------|
G|--9999999999--7777777777--5~--7/9-9-999--12-12-12-12-12-12-12--55555/7~--|
D|--xxxxxxxxxx--xxxxxxxxxx--x~--x/x-x-xxx--x--x--x--x--x--x--x---xxxxx/x~--|
A|--7777777777--5555555555--3~--5/7-7-777--10-10-10-10-10-10-10--33333/5~--|
E|-------------------------------------------------------------------------|
"I am so frustrated, and I am so frustrated."


| /  slide up
| \  slide down
| h  hammer-on
| p  pull-off
| ~  vibrato
| +  harmonic
| x  Mute note
Suggest correction What's this?
You can suggest a correction to this tab. Community and Mods will review your correction and vote to approve or reject it.
comments
We did not receive enough feedback on this tab! Please rate:
print report bad tab
1 2 3 4 5
I want to post or [tab]
guest
You may want to rate the tab now too:
select rating
Please do not post tabs as comments. Select "correction" instead!