Oops, an error
Loading. Please wait.

Flashbacks Bass Tab

version 2
version 2

Whole song

Interactive

548 views 1 this week
no commentswrite comment
1 2 3 4 5
3 more votes to show rating
add to favorites
launch autoscroll
font size
0
reset
guitar tuner
Autoscroll
slow
fast
+/-
esc
set tempo
stop
Help us to improve Ultimate-Guitar.com Take our survey!
×
Author
Difficulty
intermediate
Intro:
G|------------------------|
D|--------------------1--2|
A|-----------0--2--4------|
E|--0--2--4---------------| 

Main Riff: 
G|---11--11--11--11------------------|
D|--------------------9---9---9---9--|
A|-9---9---9---9---------------------|
E|------------------7---7---7---7----|

G|----9---9---9---9-----------------|
D|--------------------11--11--11--11|
A|--7---7---7---7-------------------| x2
E|------------------9---9---9---9---| 

Verse 1st part: 
G|----------------------------------------|
D|-----------7--9/11--9--9--9h11 9--------|
A|--9--9--9-------------------------11--9-|
E|----------------------------------------|

G|------------------------------------|
D|-----------6h7--9--9--9--9--9--7--6-|
A|--7--7--7---------------------------| x2
E|------------------------------------| 

Verse 2nd part: 0:28 
G|----------------------------11---11---|
D|-----------7--9/11--9--9--9----9----9-|
A|--9--9--9-----------------------------|
E|--------------------------------------|

G|--------------------------------|
D|--6--6--6h7--6------------------|
A|----------------7-7-7-7-7-7-7-7-|
E|--------------------------------|

G|----------------------------------9-9--8-8----------|
D|--------------------------------------------11-11--9|
A|--9-9--9-9--6-6--7-7-7-7-7-7-7-7--------------------|
E|----------------------------------------------------| 

Chorus, repeat Main Riff 

Verse 

Chorus 

Main Riff 

Bridge 1st time: 1:41 
G|--11--11-----------11-11-11--------9-9-9---|
D|-------------------------------------------|
A|----------------------------9------------7-|
E|-------------------------------------------|

2nd and 3rd time: 1:54 
G|-------------------------------------------------|
D|-------------------------------------------------|
A|--9--9--9-9--6--6--6--6--6/7--7--7-7-------------|
E|--------------------------------------9--9--9--9-| 

3rd time: 2:03 
G|----------------------------------|
D|----------------------------------|
A|--7-7-7-7-7-7-7-7-7-7-7-7-7-7-7-7-|
E|----------------------------------| 

Guitar with reverb breakdown 

Chorus x2 

2nd time: 2:31 
G|---------------------------6-6--8-8--9-9-|
D|------------6-6--7-7--9-9----------------|
A|--7-7--9-9-------------------------------|
E|-----------------------------------------|
Suggest correction
Give kudos to tab author, rate the tab!
1 2 3 4 5
comments
print report bad tab
guest
You may want to rate the tab now too:
select rating
Wanna post a correction for this tab? Suggest correction