Oops, an error
Loading. Please wait.

Black Betty Bass Tab

version 1
version 1

Whole song

46,352 views 45 this week
2 commentsread comments
1 2 3 4 5
x 14
add to favorites
launch autoscroll
font size
0
reset
guitar tuner
Autoscroll
slow
fast
+/-
esc
set tempo
stop
Help us to improve Ultimate-Guitar.com Take our survey!
×
Author
SONG:Black Betty
ARTIST:Ram Jam

[Intro]
   Gong                       Guitar                             Gong
G|--------------|--------------|--------------|--------------|--------------|
D|--------------|--------------|--------------|--------------|--------------|
A|--------------|--------------|--------------|--------------|--------------|
E|--------------|--------------|--------------|--------------|--------------|

G|--------------------------------------------------------------------------|
D|--------------------------------------------------------------------------|
A|--------------------------------------------------------------------------|
E|7--7--7--7-7-7--7-7-7---5--7-7-----------5-|-7-7-----------5-|-7-7------5-|
  |_______pm_______|

G|-------------------|-------------------|-------------------|
D|-------------------|-------------------|-------------------|
A|-----------------7-|-----------------5-|-----------------7-|
E|-7-7---7---7-------|-7-7---7---7---7---|-7-7---7---7---7---|

G|-------------------|-------------------|-------------------|
D|-------------------|-------------------|-------------------|
A|-----------5-------|-------------------|-------------------|
E|-----7-------------|----7--------------|-------------------|
                             let ring

G|-------------------|----------------------|
D|-------------------|----------------------|
A|-------------------|----------------------|
E|-----7-------------|----------------------|
     let ring

[Verse]
G|---------------|---------------|---------------|---------------|
D|---------------|---------------|---------------|---------------|
A|---------------|---------------|---------------|---------------|
E|--7------------|---------------|-----------7---|-----------7---|

G|---------------|---------------|---------------|---------------|
D|---------------|---------------|---------------|---------------|                 
A|---------------|---------------|---------------|---------------|
E|-----------7---|-----------7---|-----------7---|-----------7---|
    
G|--------------|
D|--------------|
A|--------------|
E|--------------|

 2nd INTRO
            Guitar                Gong
G|--------------|--------------|--------------|
D|--------------|--------------|--------------|
A|--------------|--------------|--------------|
E|--------------|--------------|--------------|

G|--------------------------------------------------------------------------|
D|--------------------------------------------------------------------------|
A|--------------------------------------------------------------------------|
E|7--7--7--7-7-7--7-7-7---5--7-7-----5--7-7-----------5--7-7-----------5----|
  |_______pm_______|


G|-------------------|-------------------|-------------------|
D|-------------------|-------------------|-------------------|
A|-----------------7-|-----------------5-|-----------------7-|
E|-7-7---7---7-------|-7-7---7---7---7---|-7-7---7---7---7---|

G|-------------------|-------------------|
D|-------------------|-------------------|
A|-----------5-------|-------------------|
E|-----7-------------|----7--------------|
                             let ring

[Verse 2]
G|---------------|---------------|---------------|---------------|
D|---------------|---------------|---------------|---------------|
A|---------------|---------------|---------------|---------------|
E|--7------------|---------------|-----------7---|-----------7---|

G|---------------|---------------|---------------|---------------|
D|---------------|---------------|---------------|---------------|
A|---------------|---------------|---------------|---------------|
E|-----------7---|-----------7---|-----------7---|-----------7---|

[MIDDLE] - make sure you swing it!
G|---------------------------------------------------|
D|---------------------------------------------------|
A|---5---5---5---5---5-7-7-5------------------5------|
E|------------------------------0---2---5-6-7-----7--|

G|---------------------------------------------------|
D|---------------------------------------------------|
A|---5---5---5---5---5-7-7-5------------------5------|
E|------------------------------0---2---5-6-7-----7--|

drum break
G|---------------------------------------------------|
D|---------------------------------------------------|
A|---5---5---5---5---5-7-7-5------------------5------|
E|------------------------------0---2---5-6-7-----7--|

drum break
G|---------------------------------------------------|
D|---------------------------------------------------|
A|---5---5---5---5---5-7-7-5------------------5------|
E|------------------------------0---2---5-6-7-----7--|

G|------------------------------------------|
D|------------------------------------------|
A|---2-----2-----2------2----------2--3--4--|
E|------------------------------------------|

[TEMPO CHANGE] - deep breath now...
G|-----------------|-----------------|-----------------|-----------------|
D|-0-0-----0-0-3-4-|-0-0-----0-0-3-4-|-0-0-----0-0-3-4-|-0-0-----0-0-----|
A|-----2-0---------|-----2-0---------|-----2-0---------|-----2-0-----2-0-|
E|-----------------|-----------------|-----------------|-----------------|

G|-----------------|-----------------|-----------------|-----------------|
D|-----------------|-----------------|-0-0-----0-0-3-4-|-0-0-----0-0-----|
A|-----------------|-----2-2-3-3-4-4-|-----2-0---------|-----2-0-----4-3-|
E|-3-3-3-3-3-3-3-3-|-3-3-------------|-----------------|-----------------|
                                      
G|---------------4-|-----------------|-----------------|-----------------|
D|---------2-2-4---|-------------2-4-|-------------2-4-|-------------2-4-|
A|-2-2-5-5---------|-2-2-----2-2-----|-2-2-----2-2-----|-2-2-----2-2-----|
E|-----------------|-----4-2---------|-----4-2---------|-----4-2---------|

G|-----------------|-----------------|-----------------|-----------------|
D|-------------5-7-|-------------5-7-|-------------5-7-|-------------5-7-|
A|-5-5-----5-5-----|-5-5-----5-5-----|-5-5-----5-5-----|-5-5-----5-5-----|
E|-----7-5---------|-----7-5---------|-----7-5---------|-----7-5---------|

G|-------------5-7-|-------------5-7-|-----------------|-----------------|
D|-5-5-----5-5-----|-5-5-----5-5-----|-------------5-7-|-------------5-7-|
A|-----7-5---------|-----7-5---------|-5-5-----5-5-----|-5-5-----5-5-----|
E|-----------------|-----------------|-----7-5---------|-----7-5---------|

G|-----------------|-----------------|-----------------|-----------------|
D|-------------2-4-|-------------2-4-|-------------2-4-|-------------2-4-|
A|-2-2-----2-2-----|-2-------2-2-----|-2-2-----2-2-----|-2-2-----2-2-----|
E|-----4-2---------|---0-2-0---------|-----4-2---------|-----4-2---------|

G|-----------------|-----------------|-----------------|-----------------|
D|-------------5-7-|-------------5-7-|-------------5-7-|-------------5-7-|
A|-5-5-----5-5-----|-5-5-----5-5-----|-5-5-----5-5-----|-5-5-----5-5-----|
E|-----7-5---------|-----7-5---------|-----7-5---------|-----7-5---------|

G|-----------------|-----------------|-----------------|-----------------|
D|-------------2-4-|-------------2-4-|-------------2-4-|-------------2-4-|
A|-2-2-----2-2-----|-2-2-----2-2-----|-2-2-----2-2-----|-2-2-----2-2-----|
E|-----4-2---------|-----4-2---------|-----4-2---------|-----4-2---------|

G|--------------------------------------------------------------------------|
D|----------------12-12-9---12-12-9--------------------12-12-9---12-12-9----|
A|5-5-2-0-5-5-2-0--------12---------12-|5-5-2-0-5-5-2-0--------12--------12-|
E|--------------------------------------------------------------------------|

G|-----------------|-----------------|-----------------|-----------------|
D|-------------2-4-|-------------2-4-|-------------2-4-|-------------2-4-|
A|-2-2-----2-2-----|-2-2-----2-2-----|-2-2-----2-2-----|-2-2-----2-2-----|
E|-----4-2---------|-----4-2---------|-----4-2---------|-----4-2---------|

G|-----------------|-----------------|-----------------|-----------------|
D|-------------5-7-|-------------5-7-|-------------5-7-|-------------5-7-|
A|-5-5-----5-5-----|-5-5-----5-5-----|-5-5-----5-5-----|-5-5-----5-5-----|
E|-----7-5---------|-----7-5---------|-----7-5---------|-----7-5---------|

G|-----------------|-----------------|-----------------|
D|-------------2-4-|-------------2-4-|-------------2-4-|
A|-2-2-----2-2-----|-2-2-----2-2-----|-2-2-----2-2-----|
E|-----4-2---------|-----4-2---------|-----4-2---------|

TEMPO CHANGE!!!
G|--------------------|
D|--9--7--------------|
A|--------9--8--7-----|
E|----------------10--| 

G|---------------------|------------------9-7-|---------------------|
D|-----9-------7-----7-|-----9-------7--7---7-|-----9-------7-----7-|
A|---------7-9---7-9---|---------7-9----------|---------7-9---7-9---|
E|-7-------------------|-7--------------------|-7-------------------|

G|---------------------|---------------------|------------------9-7-|
D|-------------7-------|-----9-------7-----7-|-----9-------7--7---7-|
A|---------7-9-----7-5-|---------7-9---7-9---|---------7-9----------|
E|-5---8-9-------------|-7-------------------|-7--------------------|

G|---------------------|---------------------|
D|-----9-------7-----7-|-------------7---8---|
A|---------7-9---7-9---|---------7-9---------|
E|-7-------------------|-5---8-9-------------|

drum break

G|---------------------------------------------------|
D|---------------------------------------------------|
A|---5---5---5---5---5-7-7-5------------------5------|
E|------------------------------0---2---5-6-7-----7--|

drum break

G|---------------------------------------------------|
D|---------------------------------------------------|
A|---5---5---5---5---5-7-7-5------------------5------|
E|------------------------------0---2---5-6-7-----7--|

G|------------------------------------------|
D|------------------------------------------| 
A|---2-----2-----2------2----------2--------|
E|------------------------------------------|
                                  let ring

[Verse 3]
G|---------------|---------------|---------------|---------------|
D|---------------|---------------|---------------|---------------|
A|---------------|---------------|---------------|---------------|
E|---------------|---------------|-----------7---|-----------7---|

G|---------------|---------------|---------------|---------------|
D|---------------|---------------|---------------|---------------|                 
A|---------------|---------------|---------------|---------------|
E|-----------7---|-----------7---|-----------7---|-----------7---|

G|--------------------|
D|-12-12-12-----------|
A|----------14--------|
E|--------------------|
      crash ending

Have fun play this one. this is a very good song to jam to.
Suggest correction
comments
print report bad tab
2 comments total.
0 reply
thunderhawk 535 Oct 10, 2008 07:36 PM

really good tab. and freaking hard. lol

+4 reply
Stéph 105 May 17, 2012 06:10 PM

Try to play Black Betty, it will be fun they say...
Awesome tab!

guest
You may want to rate the tab now too:
select rating
Wanna post a correction for this tab? Suggest correction