Oops, an error
Loading. Please wait.

A Lannister Always Pays His Debts tab

1,555 views 60 this week
no commentswrite comment
1 2 3 4 5
x 6
add to favorites
×
Save as Personal and add changes to this tab that will be seen only by you. Learn more ›
×
You can save this tab as Personal to edit and correct it or add notes. All changes will be seen only by you. Learn more »
launch autoscroll
font size
0
reset
how to read this tab
guitar tuner
edit
Autoscroll
slow
fast
+/-
esc
set tempo
stop
Song: A Lannister Always Pays His Debts
Artist: Ramin Djawadi
Album: Game of Thrones (Music From The HBO® Series) Season 3
Tabbed by Shehan Sourjah

Guitar 1: DADGBe (Drop D Tuning)
Guitar 2: DADGBe (Drop D Tuning)

Link to my guitar cover: https://www.youtube.com/watch?v=mqF_PM2PnKo

Please make sure to rate this tab and subscribe to my youtube channel for more GoT guitar covers + free tabs. 


[Intro]

Guitar 1

e|---------------------------------------------------------------------------------|
B|---------------------------------------------------------------------------------|
G|---------------------------------------------------------------------------------|
D|------2-3-----2-3-----2-3-----2-3-----2-3-----2-------5-7-----5-7----------------|
A|----0-------0-------0-------0-------0-----0-3---3---3-------3-------5---5--------|
D|--0-------0-------0-------0-------0---------------3-------3-------5---8----7---5-|


[Part 1]


Guitar 1

e|---------------------------------------|---------------------------------------|
B|---------------------------------------|---------------------------------------|
G|---------------------------------------|---------------------------------------|
D|---------2-3-----2-3-----2-3-----2-----|------5-7-----5-7----------------------|
A|-------0-------0-------0-----0-3---3---|----3-------3-------5---5--------------|
D|-----0-------0-------0-----------------|--3-------3-------5---8----7---5-------|


Guitar 2

e|---------------------------------------|---------------------------------------|
B|---------------------------------------|---------------------------------------|
G|---------------------------------------|---------------------------------------|
D|----3-----2-----3-5-2-----5-3-2-0-2----|----7----5-----7-8-5-----8-7-5-3--3--2-|
A|--0-----0-----0---------0--------------|--3----3-----3---------3---------------|
D|---------------------------------------|---------------------------------------|



Guitar 1

e|------1-5------0-5------1-5------0-5---|------1--------------------------------|
B|----3--------1--------3--------1-------|----3---3--------8---------------------|
G|--2--------2--------2--------2---------|--3------------7-----------------------|
D|--0--------2--------0--------2---------|--3----------5-------------------------|
A|-----------0-----------------0---------|--1--------5---------------------------|
D|---------------------------------------|-----------5---------------3---2---0---|


Guitar 2

e|---------------------------------------|---------------------------------------|
B|---------------------------------------|---------------------------------------|
G|---------------------------------------|---------------------------------------|
D|----2-3-0---3--3-2-------2-3-0---3-3-2-|----2-3-0---7---7---5-0-5--3---2---0---|
A|--0----------------0---0---------------|--0------------------------------------|
D|---------------------------------------|---------------------------------------|


[Part 2]

Guitar 1 (strum)


       Dm      Am       Dm       Am           Bb       G       F       Em     Dm
e|------1-------0--------1-------0------|------1---------------------------------|
B|------3-------1--------3-------1------|------3-------8-------6-------5-------3-|
G|------2-------2--------2-------2------|------3-------7-------5-------2-------2-|
D|------0-------2--------0-------2------|------3-------5-------3-------2-------0-|
A|------0-------0--------0-------0------|------1-------5-------3-------3-------0-|
D|------0----------------0--------------|--------------5-------3-------2-------0-|


Guitar 2

     Dm       Am           Dm         Am         Bb         G              F         Em 
e|-------------------------------------------|-------------------------------------------|
B|-------------------------------------------|-------------10-10-8---8------8-10-8-------|
G|--9-10-7---10--10-9-------9-10-7---10-10-9-|----9-10-7-----------7---10---------9-10-7-|
D|--------------------7---7------------------|--7----------------------------------------|
A|-------------------------------------------|-------------------------------------------|
D|-------------------------------------------|-------------------------------------------|


[Part 3]


Guitar 1

p.m.....................................................
e|-------------------------------------------------------|
B|--3-3----3-3----3-3----3-3----3-3----3-3----3-3----3-3-|
G|--2-2----2-2----2-2----2-2----2-2----2-2----2-2----2-2-|
D|--0-0----0-0----0-0----0-0----0-0----0-0----0-0----0-0-|
A|--0-0----0-0----0-0----0-0----0-0----0-0----0-0----0-0-|
D|--0-0----0-0----0-0----0-0----0-0----0-0----0-0----0-0-|

Guitar 2

e|-------------------------------------------------------|
B|-------------------------------------------------------|
G|-------------------------------------------------------|
D|----3-----2------3--5--2--------5---3---2---0----2-----|
A|--0-----0------0--------------0------------------------|
D|-------------------------------------------------------|



Guitar 1

p.m......................
e|-------------------------------------------------------|
B|--------------------------------------------6-----5----|
G|--2-2---2-2---2-2---2-2---2-3--2------------5-----2----|
D|--2-2---2-2---2-2---2-2---2-3--2---5---3----3-----2----|
A|--0-0---0-0---0-0---0-0---0-1--0---5---3----3-----3----|
D|-----------------------------------5---3----3-----2----|


Guitar 2

e|-------------------------------------------------------|
B|-------------------------------------------------------|
G|-------------------------------------------------------|
D|----7-----5------7-8-5------8--7---5---3----3-----2----|
A|--3-----3------3----------3----------------------------|
D|-------------------------------------------------------|


[Part 4]


Guitar 1 (strum)


       Dm      Am       Dm       Am           Bb       G         F       Em
e|------1-------0--------1-------0------|------1-------------------------------|
B|------3-------1--------3-------1------|------3-------8---------6-------5-----|
G|------2-------2--------2-------2------|------3-------7---------5-------2-----|
D|------0-------2--------0-------2------|------3-------5---------3-------2-----|
A|------0-------0--------0-------0------|------1-------5---------3-------3-----|
D|------0----------------0--------------|--------------5---------3-------2-----|


Guitar 2

e|------1-5------0-5------1-5------0-5---|------1-5------------------------------|
B|----3--------1--------3--------1-------|----3------------8-------6---------5---|
G|--2--------2--------2--------2---------|--3------------7-------5---5-----2---2-|
D|--0--------2--------0--------2---------|--3----------5-------3---------2-------|
A|-----------0-----------------0---------|--1--------5---------3---------3-------|
D|---------------------------------------|-----------5---------3---------2-------|


[Part 5]


Guitar 1 (strum)

       Dm         Am            Dm           Am      
e|------1----------0-------------1------------0-------|
B|------3----------1-------------3------------1-------|
G|------2----------2-------------2------------2-------|
D|------0----------2-------------0------------2-------|
A|------0----------0-------------0------------0-------|
D|------0------------------------0--------------------|



Guitar 2


e|--12-13-10---13--13-12---------12-13-10---13--13-12-|
B|----------------------10----10----------------------|
G|----------------------------------------------------|
D|----------------------------------------------------|
A|----------------------------------------------------|
D|----------------------------------------------------|



Guitar 1 (strum)


       Bb               G                  F                 Em          Dm
e|------1-------------------------------------------------------------------|
B|------3---------------8------------------6-----------------5-----------3--|
G|------3---------------7------------------5-----------------2-----------2--|
D|------3---------------5------------------3-----------------2-----------0--|
A|------1---------------5------------------3-----------------3-----------0--|
D|----------------------5------------------3-----------------2-----------0--|


Guitar 2



e|-----12-13-10--17--17-15-10-15-13---15-17-15-12-13------15-17-15-12-13----|
B|--10-----------------------------------------------15------------------15-|
G|--------------------------------------------------------------------------|
D|--------------------------------------------------------------------------|
A|--------------------------------------------------------------------------|
D|--------------------------------------------------------------------------|

Don't forget to rate this tab. Thanks!

            
            
Suggest correction
Creating personal tab
Creating personal tab
You can edit any tab online and save it as your Personal.

You can edit, replace or remove any tab part or add personal notes – all changes will be seen only by you.

Personal tabs can be accessed anytime from any device, even offline.
Learn more »
comments
print report bad tab
guest
You may want to rate the tab now too:
select rating
Wanna post a correction for this tab? Suggest correction