Oops, an error
Loading. Please wait.

Goodbye Brother tab

7,237 views 204 this week
4 commentsread comments
1 2 3 4 5
x 10
add to favorites
×
Save as Personal and add changes to this tab that will be seen only by you. Learn more ›
×
You can save this tab as Personal to edit and correct it or add notes. All changes will be seen only by you. Learn more »
launch autoscroll
font size
0
reset
how to read this tab
guitar tuner
edit
Autoscroll
slow
fast
+/-
esc
set tempo
stop
-------------------------------------------------------------------------------
                   GAME OF THRONES -Goodbye Brother
-------------------------------------------------------------------------------
Always found this song very sad and haunting, especially in light of recent events...
It's pretty basic but it's fun to play along to.
This is my first tab so I'm open to suggestions

Tuning:

e|---------------------------------------------------------------------------|
B|------3----------3---------3-----------------------------------------------|
G|---0-------5--3---------0-------5--3--0------------------------------------|
D|---------------------------------------------------------------------------|
A|---------------------------------------------------------------------------|
E|---------------------------------------------------------------------------|

e|---------------------------------------------------------------------------|
B|-----3-------3-------------------------------------------------------------|
G|---0---5--3-----------5--7--8--7--8--7----5--------------------------------|
D|---------------------------------------------------------------------------|
A|---------------------------------------------------------------------------|
E|---------------------------------------------------------------------------|

e|------10-------8--6----10/15----17-18-20/15----13/15/13--10----------------|
B|---8-----------------------------------------------------------------------|
G|---------------------------------------------------------------------------|
D|---------------------------------------------------------------------------|
A|---------------------------------------------------------------------------|
E|---------------------------------------------------------------------------|

e|---------------------------------------------------------------------------|
B|---------------------------------------------------------------------------|
G|---------------------------------------------------------------------------|
D|------------------------------------5--------------------------------------|
A|---3---5---6-------3---5----------------5---6----------5---6---5-----------|
E|---------------------------3-----------------------------------------------|

e|---------------------------------------------------------------------------|
B|---------------------------------------------------------------------------|
G|---------------------------------------------------------------------------|
D|---5---7---8-------5---7---0-----------------------------------------------|
A|---------------------------------------------------------------------------|
E|---------------------------------------------------------------------------|


e|---------------------------------------------------------------------------|
B|---------------------------------------------------------------------------|
G|---------------------------------------------------------------------------|
D|---------------------------------------------------------------------------|
A|-------5------3------------------------------------------------------------|
E|---3--------------6---3----------------------------------------------------| 

************************************

| /   slide up
| \   slide down
| h   hammer-on
| p   pull-off
| ~   vibrato
| +   harmonic
| x   Mute note
| b   Bend
| pb  Pre-bend
| br  Bend release
| pbr Pre-bend release
| brb Bend release bend

************************************

            
            
Suggest correction
Creating personal tab
Creating personal tab
You can edit any tab online and save it as your Personal.

You can edit, replace or remove any tab part or add personal notes – all changes will be seen only by you.

Personal tabs can be accessed anytime from any device, even offline.
Learn more »
comments
print report bad tab
4 comments total. Showing first comments.
0 reply
jack.nicol276 10 Nov 19, 2015 04:37 AM, edited at 09:54 am

what do I do if I don't have fret 20 and I'm on acoustic should I just do fret 19 or move everything up by 1. otherwise absolutely smashing

0 reply
robertodnl28 10 Apr 20, 2016 04:58 PM

Very good tab, but I think the high part needs a small correction. I'm quite sure this is the correct way to do it:

e|------10-------8--6----10---15-17-18-20-15-17p15-13/10---------------------|
B|---8-----------------------------------------------------------------------|

0 reply
sander_sitek 10 Sep 13, 2016 11:47 AM

I really cannot do the high pitched part. Even with robertodnl28's change it still ends up sounding super bad. eveerything else is awesome though, its just that line

guest
You may want to rate the tab now too:
select rating
Wanna post a correction for this tab? Suggest correction