Oops, an error
Loading. Please wait.

Reign Tab

version 1
version 1

Whole song

Interactive

13 views 1 this week
no commentswrite comment
1 2 3 4 5
3 more votes to show rating
add to favorites
launch autoscroll
font size
0
reset
how to read this tab
guitar tuner
Autoscroll
slow
fast
+/-
esc
set tempo
stop
Help us to improve Ultimate-Guitar.com Take our survey!
×
Author
Difficulty
Tuning
intermediate
D A D G B E
Song: Reign
Artist: Ramin Djawadi
Album: Game of Thrones (Music From The HBO® Series) Season 6
Tabbed by Shehan Sourjah

Guitar 1: Drop D tuning (DADGBe)
Guitar 2: Drop D tuning (DADGBe)

Link to my guitar cover: https://www.youtube.com/watch?v=TA4rx2GtpEw


[part 1]

Guitar 1

e|--------------------------------------------------------|
B|--------------------------------------------------------|
G|----5-5----5-5----5-5----5-5----5-5----5-5--------------|
D|--------------------------------------------------------| x 6
A|--3------3------3------3------3------3------------------|
D|--------------------------------------------3-3-6-6-5-5-|

Guitar 2 (Comes in after 1 bar of Guitar 1)

e|--------------------------------|-----------------------------------|
B|--------------------------------|-----------------------------------|
G|--5-----5-----------------------|----5-5---3-3----------------------|
D|--5-----3-----3---------3-3-6-5-|----------------3-3---3-3--3-3-6-5-|
A|--3-----1-----3-----------------|--3-----1--------------------------|
D|--------------3-----------------|--------------3-----3--------------|

e|--------------------------------|--------------------------------------------|
B|--------------------------------|--------------------------------------------|
G|--5-----7-----8---------8-12-10-|-5-----5-----7-----7-----8-----8----8-12-10-|
D|--3-----5-----6-----------------|--5-6---5-6---5-6---5-6---5-6---5-6---------|
A|--3-----5-----6---------6-10-8--|------------------------------------6-10-8--|
D|--------------------------------|--------------------------------------------|

e|--8-8-8-8-8-8-10-10-10-10-10-10-11-11-11-11-11-11----11-15-13-|
B|--------------------------------------------------------------|
G|--5-5-5-5-5-5-7--7--7--7--7--7--8--8--8--8--8--8-----8--12-10-|
D|--------------------------------------------------------------|
A|--------------------------------------------------------------|
D|--------------------------------------------------------------|


[Part 2]

Guitar 1

e|--3-------------------|--1-------------------|
B|--4-------------------|--3-------------------|
G|--5-------------------|--3-------------------|
D|--5-------------------|--3-------------------|
A|--3-------------------|--1-------------------|
D|----------------------|----------------------|

Guitar 2

e|----------------------|-------------8--8--10-|
B|--8-8-8---8--8-8-8--8-|--8-8-8---6--8--8--11-|
G|--5-5-5---5--5-5-5--5-|--5-5-5---5-----------|
D|----------------------|----------------------|
A|----------------------|----------------------|
D|----------------------|----------------------|



Guitar 1

e|----------------------------|---------------------------|
B|--6-------------------------|--8------------------------|
G|--5-------------------------|--7------------------------|
D|--3-------------------------|--5------------------------|
A|--3-------------------------|--5------------------------|
D|--3-------------------------|--5------------------------|

Guitar 2

e|-13-13-13--13--13-13-13--13-|--13-13-13--13---13--------|
B|----------------------------|---------------------------|
G|-10-10-10--10--10-10-10--10-|--10-10-10--10---10--------|
D|----------------------------|---------------------------|
A|----------------------------|---------------------------|
D|----------------------------|---------------------------|


[Part 3]

Guitar 1

e|--11-----------------------------------10----------|
B|--9------------------------------------8-----------|
G|--8------------------------------------7-----------|
D|--6------------------------------------5-----------|
A|--6------------------------------------5-----------|
D|--6------------------------------------5-----------|

Guitar 2

e|--8-8-8-8-8-8-6-6-6-6-6-6--------------------------|
B|--------------------------6-6-6-6-6-6--6-6-9-9-8-8-|
G|---------------------------------------------------|
D|---------------------------------------------------|
A|---------------------------------------------------|
D|---------------------------------------------------|



Guitar 1

e|--11-----------------------------------------------|
B|--9------------------------------------------------|
G|--8------------------------------------------------|
D|--6------------------------------------------------|
A|--6------------------------------------------------|
D|--6------------------------------------------------|

Guitar 2

e|--8-8-8-8-8-8-6-6-6-6-6-6--------------------------|
B|--------------------------6-6-6-6-6-6--6-6-9-9-8-8-|
G|---------------------------------------------------|
D|---------------------------------------------------|
A|---------------------------------------------------|
D|---------------------------------------------------|


[Part4]

Guitar 1

e|-----------------------|-----------------------|
B|-----------------------|-----------------------|
G|------8-7----6---------|------8-7----6---------|
D|--1--------------------|--1--------------------|
A|--1---6-5----4---4-3-2-|--1---6-5----4---4-3-2-|
D|--1--------------------|--1--------------------|


Guitar 2 (each note is tremolo picked - refer video for better understanding)

e|-----------------------|-----------------------|
B|-----------------------|-----------------------|
G|------6-5----4---------|------6-5----4---------|
D|-----------------------|-----------------------|
A|-----------------------|-----------------------|
D|-----------------------|-----------------------|


Guitar 1

e|--------------2---4-------|--------------------|
B|----------6---4---6-------|----9-7-------------|
G|------8---6---4---6---8---|--8-8-6-------------|
D|--1-------6---4---6---6---|--6-6-4-------------|
A|--1---6---4---2---4---6---|--6-----------------|
D|--1-----------------------|--------------------|

Guitar 2

e|--------------------------|--------------------|
B|--------------------------|--------------------|
G|--------------------------|---------5-5---5-5--|
D|--------------------------|--------------------|
A|--------------------------|------3------3------|
D|--------------------------|--------------------|


Guitar 2 (plays nothing here, gets in position for next part)


[Part 5]

Guitar 1 (REST)

Guitar 2

e|------------------------------------------------------------|
B|------------------------------------------------------------|
G|----5-5----5-5----5-5----5-5----5-5----5-5----5-5---5-5-----|
D|------------------------------------------------------------|
A|--3------3------3------3------3------3------3-----3---------|
D|------------------------------------------------------------|



Guitar 1

e|------------------------------------------------------------|
B|------------------------------------------------------------|
G|------------------------------------------------------------|
D|------------------------------------------------------------|
A|-----3---5---5--6---6--8---------3---5---5--6---6--8--------|
D|------------------------------------------------------------|

Guitar 2

e|------------------------------------------------------------|
B|------------------------------------------------------------|
G|----5-5----5-5----5-5----5-5----5-5----5-5----5-5---5-5-----|
D|------------------------------------------------------------|
A|--3------3------3------3------3------3------3-----3---------|
D|------------------------------------------------------------|



Guitar 1

e|-----------------------------|
B|-----------------------------|
G|-----5---7---7--8---8--10----|
D|-----------------------------|
A|-----3---5---5--6---6--8-----|
D|-----------------------------|

Guitar 2

e|-----------------------------|
B|-----------------------------|
G|----5-5----5-5----5-5----5-5-|
D|-----------------------------|
A|--3------3------3------3-----|
D|-----------------------------|



Guitar 1

e|------------------------------------------------------------|
B|-----4---6---6--8---8--9---9--11--11-13---13--15------------|
G|------------------------------------------------------------|
D|-----1---3---3--5---5--6---6--8---8--10---10--12------------|
A|------------------------------------------------------------|
D|------------------------------------------------------------|

Guitar 2

e|------------------------------------------------------------|
B|------------------------------------------------------------|
G|----5-5----5-5----5-5----5-5----5-5----5-5----5-5---5-5-----|
D|------------------------------------------------------------|
A|--3------3------3------3------3------3------3-----3---------|
D|------------------------------------------------------------|


[Part 6]

Guitar 1

e|--------------------|------------------|
B|--------------------|------------------|
G|--5------------8----|--3----2----6---5-|
D|--5------------8----|--3----3----6---5-|
A|--3------------6----|--1----0----4---3-|
D|--------------------|------------------|

Guitar 2

e|------------13-11---|------------9---8-|
B|--13-----13---------|--11---10---------|
G|--------------------|------------------|
D|--------------------|------------------|
A|--------------------|------------------|
D|--------------------|------------------|



Guitar 1

e|--------------------|------------------|
B|--8-----------------|--9------------11-|
G|--7-----------------|--8------------10-|
D|--5-----------------|--6------------8--|
A|--5-----------------|--6------------8--|
D|--5-----------------|--6------------8--|

GUitar 2

e|--------------------|------------------|
B|--8-11-8------------|--9-11-9-------11-|
G|--------------------|------------------|
D|--------------------|------------------|
A|--------------------|------------------|
D|--------------------|------------------|


[Part 7]

Guitar 1 (REST)

Guitar 2

e|------------------------------|
B|------------------------------|
G|----5-5----5-5----5-5----5-5--|
D|------------------------------| x 3
A|--3------3------3------3------|
D|------------------------------|


The "Dragon sound" that I place at the end is tremolo picked w/ distortion:

e|------------------------------|
B|------------------------------|
G|------------------------------|
D|------------------------------|
A|------------------------------|
D|--10-10-10-10-10\-------------|

Make sure to keep picking as u slide down


Don't forget to rate this tab. Thanks!

************************************

\ slide down

************************************
Suggest correction
Give kudos to tab author, rate the tab!
1 2 3 4 5
comments
print report bad tab
guest
You may want to rate the tab now too:
select rating
Wanna post a correction for this tab? Suggest correction