Oops, an error
Loading. Please wait.

The Throne Is Mine Tab

7 views 1 this week
no commentswrite comment
1 2 3 4 5
3 more votes to show rating
add to favorites
launch autoscroll
font size
0
reset
how to read this tab
guitar tuner
Autoscroll
slow
fast
+/-
esc
set tempo
stop
Help us to improve Ultimate-Guitar.com Take our survey!
×
Author
Difficulty
intermediate
Artist: Ramin Djawadi
Song: The Throne is Mine
Album: Game of Thrones (Music From The HBO® Series) Season 2
Tabbed by Shehan Sourjah

Guitar 1: Standard Tuning (EADGBe)
Guitar 2: Standard Tuning (EADGBe)
Guitar 3: Drop D Tuning (DADGBe)

(Guitars 1 + 2 play lead while Guitar 3 plays the chords mentioned above the tab (G5,C5 etc.) )

Link to my Cover: https://www.youtube.com/watch?v=IZLpod9gEfs

[Chords]
G5      55578X
G#5     66689X
Eb5     X688XX
D5(2)   X577XX
C#5     X466XX
B5      X244XX
E5      22245X
D5      00023X
F5      33356X
F#5     44467X  
F5(2)   X 8 10 10 X X X
E5(2)   X799XX

[Part 1]
(Baratheon theme)

[Guitar 1]
  G5                          G5
e|----------------------------------------------------|
B|----------------------------------------------------|
G|----------------------------------------------------|
D|----------------------------------------------------|
A|----------0-1----------3-1-0--------0-1-----1-----3-|
E|--3-----3-----3----3-3-------3----3------3-----3----|

[Guitar 2]
e|----------------------------------------------------|
B|----------------------------------------------------|
G|----------2-3----------5-3-2--------2-3-----3-----5-|
D|--5-----5-----5----5-5-------5----5------5-----5----|
A|----------------------------------------------------|
E|----------------------------------------------------|


[Guitar 1]
  G#5                        G#5
e|----------------------------------------------------|
B|----------------------------------------------------|
G|----------------------------------------------------|
D|--------------------------------------------------2-|
A|----------1-2----------4-2-1--------1-2-----4-------|
E|--4-----4-----4--------------4----4------4-----4----|

[Guitar 2]
e|----------------------------------------------------|
B|--------------------------------------------------5-|
G|--------------------------------------------6-------|
D|--6--------------------------------------6-----6----|
A|----------------------------------------------------|
E|----------------------------------------------------|


[Guitar 1]
  Eb5                             Eb5 D5(2) C#5 B5  
e|----------------------------------------------------|
B|----------------------------------------------------|
G|----------------------------------------------------|
D|-----------------------6----------------------------|
A|--6-----6-7-9-6----------9-7-6----6---5---4---2-----|
E|----------------------------------------------------|

[Guitar 2]                                
                                          trem.
                                   ..................
e|-----------------------4----------11--10--9---7-----|
B|--4-----4-5-7-4----4-4---7-5-4----------------------|
G|----------------------------------------------------|
D|----------------------------------------------------|
A|----------------------------------------------------|
E|----------------------------------------------------|


[Guitar 1]
                        E5     G#5         E5     C#5     G#5         
e|----------------|------------------|------------------------|
B|----------------|------------------|------------------------|
G|----------------|------------------|------------------------|
D|----------------|------------------|----------1-------------|
A|----------------|----1-2---4-------|----1-2-------4---2-----|
E|--4-4-4-4-4-4-4-|--4-----------4---|--4-------------------4-|

[Guitar 2]
e|----------------|------------------|------------------------|
B|----------------|------------------|----------4-------------|
G|----------------|----3-4---6-------|----3-4-------6---4-----|
D|----------------|--6-----------6---|--6-------------------6-|
A|----------------|------------------|------------------------|
E|----------------|------------------|------------------------|


[Guitar 1]
e|-------------------------------------------------------------------------|
B|-------------------------------------------------------------------------|
G|-------------------------------------------------------------------------|
D|--------------------------------------4-----------------------4----------|
A|--6-----7-----6-----7-----6-----7-----------7-----6-----7----------------|
E|--4--4--4--4--4--4--4--4--4--4--4--4--4--4--4--4--4--4--4--4--4--4--4--4-|

[Guitar 2]                       
                                 trem.
               ..........................................................
e|--------------------------------12----14----12----11----12----14---------|
B|--------------9-----------------9-----9-----9-----9-----9-----9----------|
G|-------------------------------------------------------------------------|
D|-------------------------------------------------------------------------|
A|-------------------------------------------------------------------------|
E|-------------------------------------------------------------------------|

[Part 2] - Petyr Baelish theme

(Guitar 1)
e|--7-----------10--7-----------7---9-----------10--7-|
B|------8---7-----------8---7-----------8---7---------|
G|--4-----------7---4-----------4---6-----------7---4-|
D|------5---4-----------5---4-----------5---4---------|
A|----------------------------------------------------|
E|----------------------------------------------------|

[Guitar 2]
e|------------------------------7---9-----------------|
B|--12----------8---7---------------------------8---7-|
G|------------------------------4---6-----------------|
D|--9-----------5---4---------------------------5---4-|
A|----------------------------------------------------|
E|----------------------------------------------------|


[Guitar 1]
(Downstroke each chord 12 times)
e|------7---------------7---------------9----------------10--------------12-|
B|--------------------------------------------------------------------------|
G|------4---------------4---------------6----------------7---------------9--|
D|--------------------------------------------------------------------------|
A|--------------------------------------------------------------------------|
E|--------------------------------------------------------------------------|

[Guitar 2]
e|--7---9-----------10--7-----------7---9-----------10---7-----------7---9--|
B|----------8---7-----------8---7-----------8---7------------8---7----------|
G|--4---6-----------7---4-----------4---6-----------7----4-----------4---6--|
D|----------5---4-----------5---4-----------5---4------------5---4----------|
A|--------------------------------------------------------------------------|
E|--------------------------------------------------------------------------|

[Part 3]
(Baratheon + Petyr Baelish mixed theme)

[Guitar 1]
e|--------------------------------------------------------------------------------------|
B|--------------------------------------------------------------------------------------|
G|--4-------------------4-------------------4-------------------------------4-----------|
D|--4-------------------4-------------------4-------------------------------4-----------|
A|--2-------------------2-------------------2-------------------------------2-----------|
E|--------------------------------------------------------------------------------------|

[Guitar 2]
e|--------------------------------------------------------------------------------------|
B|--------------------------------------------------------------------------------------|
G|--------------------------------------------------------------------------------------|
D|------------------------------------2-------------------------------------------------|
A|--2---2-2-2-2---2-4-5-2---2-2-2-2-----5-4-2---2-2-2-2---2-4-5-------2--5--2---2-2-2-2-|
E|--------------------------------------------------------------2-4-5-------------------|


[Guitar 1]
                  B5                  B5
e|--------------------------------------------------|
B|-------2-3---5------------------------------------|
G|-----4-----------4--------------7----4------------|
D|----------------------5----4--------------5---4---|
A|--------------------------------------------------|
E|--------------------------------------------------|

[Guitar 2]
e|--------------------------------------------------|
B|--------------------------------------------------|
G|--------------------------------------------------|
D|-------------2------------------------------------|
A|--2--2-4-5-------2----2-2-2-2---2-2-2-2---2-4-5-2-|
E|--------------------------------------------------|


[Guitar 1]
          D5 G#5 E5   D5  B5                  B5
e|-------------2--------------------------------------------|
B|-------2-3-------5--3-3-2---------------------------------|
G|-----4--------------------4-------------7----4------------|
D|------------------------------5----4--------------5----4--|
A|----------------------------------------------------------|
E|----------------------------------------------------------|

[Guitar 2]
e|----------------------------------------------------------|
B|----------------------------------------------------------|
G|----------------------------------------------------------|
D|-------------4---2----------------------------------------|
A|--2--2-4-5----------5-5-4-2---2-2-2-2---2-2-2-2---2-4-5-2-|
E|----------------------------------------------------------|


[Guitar 1]
          D5  E5  F5 F#5
e|-----------------------|
B|-------2-3---5---6---7-|
G|-----4-----------------|
D|-----------------------|
A|-----------------------|
E|-----------------------|

[Guitar 2]
e|-----------------------|
B|-----------------------|
G|-----------------------|
D|-------------2---3---4-|
A|--2--2-4-5-------------|
E|-----------------------|


[Guitar 1]
   B5                 B5                  C#5                D5(2)
e|--7------------10----7--------------7----9-------------10----7-------------|
B|-------8---7--------------8----7--------------8---7---------------8---7----|
G|--4------------7-----4--------------4----6-------------7-----4-------------|
D|-------5---4--------------5----4--------------5---4---------------5---4----|
A|---------------------------------------------------------------------------|
E|---------------------------------------------------------------------------|

[Guitar 2]
e|---------------------------------------------------------------------------|
B|---------------------------------------------------------------------------|
G|---------------------------------------------------------------------------|
D|---------------------------------------------------------------------------|
A|--2---2-2-2-2---2-2-2-2---2-2-2-2---2-2-2-4---4-4-4-4---4-4-4-5---5-5-5-5--|
E|---------------------------------------------------------------------------|


[Guitar 1]
         F5(2)     E5(2)    D5(2)      C#5      B5                  B5
e|---7----9--------------10---7-------------6----7------------------------------------------|
B|-------------8----7--------------8----7-------------8----7--------------------------------|
G|---4----6--------------7----4-------------3----4--------------7----4----------------------|
D|-------------5----4--------------5----4-------------5----4--------------5----4------------|
A|--------------------------------------------------------------5----2--------------5-------|
E|------------------------------------------------------------------------3----2------------|

[Guitar 2]
e|------------------------------------------------------------------------------------------|
B|------------------------------------------------------------------------------------------|
G|------------------------------------------------------------------------------------------|
D|--------3---3-3-3-2---2-2-2---------------------------------------------------------------|
A|--5-5-5---------------------5---5-5-5-4---4-4-4-2---2-2-2-2---2-2-2-2---2-2-2-2---2-2-2-2-|
E|------------------------------------------------------------------------------------------|


[Guitar 1]
   B5                   B5                    B5                                 B5
e|--7---7-7-7-7---7-9-10-7---7-7-7-7---12-10-9-7---7-7-7-7---7-9-10--------7--10--7-|
B|------------------------------------------------------------------7-9-10----------|
G|--4---4-4-4-4---4-6-7--4---4-4-4-4---9--7--6-4---4-4-4-4---4-6-7---------4--7---4-|
D|------------------------------------------------------------------4-6-7-----------|
A|----------------------------------------------------------------------------------|
E|----------------------------------------------------------------------------------|

[Guitar 2]
e|----------------------------------------------------------------------------------|
B|----------------------------------------------------------------------------------|
G|----------------------------------------------------------------------------------|
D|-------------------------------------2--------------------------------------------|
A|--2---2-2-2-2---2-4-5-2----2-2-2-2------5--4-2---2-2-2-2---2-4-5---------2---5--2-|
E|-------------------------------------------------------------------2-4-5----------|

Don't forget to rate. Thanks!
Suggest correction
Give kudos to tab author, rate the tab!
1 2 3 4 5
comments
print report bad tab
guest
You may want to rate the tab now too:
select rating
Wanna post a correction for this tab? Suggest correction