Oops, an error
Loading. Please wait.

Warcraft Bass Tab

94 views 1 this week
no commentswrite comment
1 2 3 4 5
3 more votes to show rating
add to favorites
launch autoscroll
font size
0
reset
guitar tuner
Autoscroll
slow
fast
+/-
esc
set tempo
stop
Help us to improve Ultimate-Guitar.com Take our survey!
×
Author
Difficulty
intermediate
[Intro]
G|-----------------------------------------------------------------------------------------------------|
D|-----------------------------------------------------------------------------------------------------|
A|-5-------5--3-----------5---------8-5---4-5-7--1----5-------5--3-----------5---------8-5---4-5-7-----|
D|-----0---------6-5-2-0------6-5-2-----------------------0---------6-5-2-0------6-5-2-----------------|

G|-10---10-8---------13-10---11-8---10---10-8---------13-10--9-10-12-----------------------------------|
D|-----------11-10-8--------------------------11-10-8--------------------------------------------------|
A|----8--------------------------------8---------------------------------------------------------------|
D|-----------------------------------------------------------------------------------------------------|
Suggest correction
Give kudos to tab author, rate the tab!
1 2 3 4 5
comments
print report bad tab
guest
You may want to rate the tab now too:
select rating
Wanna post a correction for this tab? Suggest correction