Oops, an error
Loading. Please wait.

Tersendiri Tab

22 views 12 this week
no commentswrite comment
1 2 3 4 5
3 more votes to show rating
add to favorites
launch autoscroll
font size
0
reset
how to read this tab
guitar tuner
Autoscroll
slow
fast
+/-
esc
set tempo
stop
Help us to improve Ultimate-Guitar.com Take our survey!
×
Author
Difficulty
intermediate
[Intro]

e|----------8--|-10-------10-|-11--------11-|--8-----------8--|-8----------8----|
B|-------8-----|-------8-----|--------8-----|----------6------|---------9-------|
G|----8--------|----8--------|----8---------|------5----------|-----8-----------|
D|-10----------|-9-----------|-8------------|--7--------------|-6---------------|
A|-------------|-------------|--------------|-----------------|-----------------|
E|-------------|-------------|--------------|-----------------|-----------------|

e|--6----------6--|-------3-----|---------3-----|-------3----|--------4---------|
B|---------8------|-3-----------|--3----------3-|--4-------4-|--4---------------|
G|------7---------|----5-----5--|------3--------|-----5------|-----5-----5------|
D|--5-------------|-------------|---------------|------------|--3---------------|
A|----------------|-3-----------|---------------|--0---------|------------------|
E|----------------|-------------|--6------------|------------|------------------|

e|---------4-------|------------8------|----------3-----|--3--------------------|
B|---4--------4----|----9-----------9--|---3---------3--|--3--------------------|
G|------5----------|-------10----------|------4---------|--4--------------------|
D|-----------------|-------------------|----------------|-----------------------|
A|-----------------|----8--------------|----------------|-----------------------|
E|---4-------------|-------------------|---3------------|--3--------------------|
Suggest correction
Give kudos to tab author, rate the tab!
1 2 3 4 5
comments
print report bad tab
guest
You may want to rate the tab now too:
select rating
Wanna post a correction for this tab? Suggest correction