Oops, an error
Loading. Please wait.

Adios Bass Tab

version 1
version 1

Whole song

Interactive

6,412 views 1 this week
2 commentsread comments
1 2 3 4 5
accurate
x 4
add to favorites
launch autoscroll
font size
0
reset
guitar tuner
Tab Pro tools
  • play this tab
  • loop segment
  • change instrument
  • show fretboard
  • metronome
×
Best way to learn
"Adios"
Autoscroll
slow
fast
+/-
esc
set tempo
stop
Contributor
Adios - Rammstein

By: Jon Craven (i_apathy@hotmail.com)
Write me if you have questions, comments, corrections, want .midi samples of
each riff, or have a tab request.

(4/4)(116 bpm)
Standard tuning

Note:
  -I have transcribed the synth bass verse below the first verse.

|-R-| - rest for one measure
R - quarter rest
r - eighth rest
* - note held for an eighth beat
\ - slide down

Intro 1 (0:00)
 
Intro 2: (0:03)
|---|---|---|---|---|---|---|----------------|
|---|---|---|---|---|---|---|--------------3-|
|-R-|-R-|-R-|-R-|-R-|-R-|-R-|R---R---R---3---|
|---|---|---|---|---|---|---|----------------|

Intro 3 (Choruses/solo pt.2): (x4)(0:20)
|----------------|----------------|
|----------------|--------------3-|
|5-55555535555555|3555555555553---|
|----------------|----------------|

Verse 1: (x4)(0:36)
|----------------|----------------|
|----------------|--------------3-|
|5-r-R---R---R---|R---R---R---3---|
|----------------|----------------|

	Synth verse:
	|----------------|------------------|
	|----------------|------------------|
	|5-5-5-5-5-5-5-5-|8-8-8-8-8-8-10-10-|
	|----------------|------------------|

Chorus 2 (x2)(0:53)

Verse 2: (1:01)
|----------------|----------------|----------------|----------------|
|----------------|--------------3-|----------------|--------------3-|
|5-r-R---R---R---|R---R---R---3---|5-r-R---R---R---|R---R---R---3---|
|----------------|----------------|----------------|----------------|

|----------------|----------------|----------------|----------------|
|----------------|--------------3-|----------------|--------------3-|
|5-r-R---R---R---|R---R---R---3---|5-r-R---5-r-R---|R---R---R---3---|
|----------------|----------------|----------------|----------------|

Chorus 3 (x4)(0:17)
Interlude 1 (rest for eight measures)(1:35)

Interlude 2 (outro): (x2)(1:51)
|----------------|--------------------|------------------------|
|----------------|--------------------|------------------------|
|----------------|8-8-8-8-10-10-10-10-|------------------------|
|6-6-6-6-6-6-6-6-|--------------------|10-10-10-10-10-10-10-10-|

|--------------------|
|--------------------|
|--------------------|
|10-10-10-10-8-8-8-8-|

Solo pt.1: (2:08)
|----------------|----------------|----------------|----------------|
|----------------|----------------|----------------|----------------|
|5-r-R---R---R---|5-r-R---R---R---|5-r-R---5-r-R---|5-r-5-r-R---R---|
|----------------|----------------|----------------|----------------|

Solo pt.2 (x4)(2:16)
Verse 3 (rest for eight measures {synth verse (x4)})(2:33)
Bridge (rest for four measures)(2:50)
Outro (x4)(2:58)

(3:31)
|----------------|-------------------|-----------------|----------------|
|----------------|-------------------|-----------------|----------------|
|----------------|8---8---8-10-10-10-|-----------------|----------------|
|6---6---6---6---|-------------------|10-*-*-*-*-*-*-*-|*-*-*-*-*-*-*-*-|

|----------------|----------------|----------------|
|----------------|----------------|----------------|
|----------------|----------------|----------------|
|*-*-*-*-*-*-*-*-|*-*-*-*-*-*-\---|----------------|

Rest till end
comments
print report bad tab
2 comments total.
0 reply
MotoGP wrote on August 11 2006, 02:01 pm

it's ok played in drop d tuning

0 reply
Dobbythe9th wrote on December 25 2011, 04:24 pm

Wrong good sir during the first verse you play

G|-------------------------------------|
D|---------------3-3-3-3-3-5-5-5-------|
A|-5-5-5-5-5-5-5-----------------1-3-5-|
E|-------------------------------------|

And then on the last one you play the same thing but without the last three notes (The 1,3 and 5)

I want to post or [tab]
guest
You may want to rate the tab now too:
select rating
Please do not post tabs as comments. Select "correction" instead!