Oops, an error
Loading. Please wait.

Adios Tab

version 1
version 1

Interactive

47,382 views 45 this week
6 commentsread comments
1 2 3 4 5
x 18
add to favorites
launch autoscroll
font size
0
reset
how to read this tab
guitar tuner
Autoscroll
slow
fast
+/-
esc
set tempo
stop
Help us to improve Ultimate-Guitar.com Take our survey!
×
Tuning
D A D G B E
Drop D Tuning

[Intro]
E|-----------------------------------------------------------|
B|-----------------------------------------------------------|
G|-------------------10-10-10-10/12-12-12-7--7-7-7-7-7/5-5/4-|
D|-8-8-8-8-8-8-8-8---10-10-10-10/12-12-12-7--7-7-7-7-7/5-5/4-|
A|-8-8-8-8-8-8-8-8----8--8--8--8/10-10-10-5--5-5-5-5-5/3-3/2-|
D|-8-8-8-8-8-8-8-8-------------------------------------------|

[Main Riff]
E|-------------------------------------------------------------|
B|-------------------------------------------------------------|
G|---5-7-------------------------------------------------------|
D|-3-5-7-------------------------------------------------------|
A|-3-3-5-------------3h5---------------3h5---------------------|
D|-3-----0-0-0-0-0-0-----0-0-0-0-0-0-0-----0-0-0-0-0-0-0-0-0-0-|


************************************

| /  Slide up
| h  Hammer-on

************************************
Suggest correction
comments
print report bad tab
6 comments total. Showing first comments.
0 reply
deftones17 180 Mar 29, 2004 12:00 AM

how to speak san fransciscan: "Vagoina!" - baseketball

0 reply
prophetsfan 20 Jul 23, 2007 08:27 AM

Not enough of the tab.. theres loads of stuff you missed out.. nicht gut!

0 reply
AdamS 10 Aug 07, 2007 02:31 PM

Wtf? itś tab??? its 2riffs of musics

guest
You may want to rate the tab now too:
select rating
Wanna post a correction for this tab? Suggest correction