Oops, an error
Loading. Please wait.

Adios Tab

version 5
version 5

Whole song

Interactive

220 views 24 this week
no commentswrite comment
1 2 3 4 5
3 more votes to show rating
add to favorites
launch autoscroll
font size
0
reset
how to read this tab
guitar tuner
backing track
0:00
0:00
×
Best way to learn
"Adios"
Autoscroll
slow
fast
+/-
esc
set tempo
stop
Author
Difficulty
Tuning
  follow
intermediate
D A D G B E
Song: Adios
Artist: Rammstein
Tuning: Drop D


[Intro:] (Clean)

e|-------------------------------------------|
B|-------------------------------------------|
G|------------------10-10-10-10-10--12-12--7-|
D|-8-8-8-8-8-8-8-8--10-10-10-10-10--12-12--7-|
A|-8-8-8-8-8-8-8-8--8--8--8--8--8---10-10--5-|
D|-8-8-8-8-8-8-8-8---------------------------|

e|----------------------------------|
B|----------------------------------|
G|-7-7-7-7-7-7-7-7-7-7-7-7-7--5-5-3-|
D|-7-7-7-7-7-7-7-7-7-7-7-7-7--5-5-3-|
A|-5-5-5-5-5-5-5-5-5-5-5-5-5--3-3-1-|
D|----------------------------------|

e|-------------------------------------------|
B|-------------------------------------------|
G|------------------10-10-10-10-10--12-12--7-|
D|-8-8-8-8-8-8-8-8--10-10-10-10-10--12-12--7-|
A|-8-8-8-8-8-8-8-8--8--8--8--8--8---10-10--5-|
D|-8-8-8-8-8-8-8-8---------------------------|

e|------------------------------|
B|------------------------------|
G|-7-7-7-7-7-7-7-7-7-7-7-7-7--5~|
D|-7-7-7-7-7-7-7-7-7-7-7-7-7--5~|
A|-5-5-5-5-5-5-5-5-5-5-5-5-5--3~|
D|------------------------------|

Main Riff: (Distortion)


[Verse 1:]

e|---------|
B|---------|
G|----10--7| x4
D|-8--10--7|
A|-8--8---5|
D|-8-------|


[Pre-Chorus:]

e|---------------------------------------------------------------|
B|---------------------------------------------------------------|
G|----10--7------------------------------------------------------| x2
D|-8--10--7--------------5/7--------------5/7--------------------|
A|-8--8---5--------------3/5--------------3/5--------------------|
D|-8---------0-0-0-0-0-0------0-0-0-0-0-0-----0-0-0-0-0-0-0-0-0-0|
             . . . . . .      . . . . . .     . . . . . . . . . .


[Verse 2:]
           x4
e|---------||-----|
B|---------||-----|
G|----10--7||-----|
D|-8--10--7||-----|
A|-8--8---5||-3h5-|
D|-8-------||-----|


[Chorus:]

e|---------------------------------------------------------------|
B|---------------------------------------------------------------|
G|----10--7------------------------------------------------------| x2
D|-8--10--7--------------5/7--------------5/7--------------------|
A|-8--8---5--------------3/5--------------3/5--------------------|
D|-8---------0-0-0-0-0-0------0-0-0-0-0-0-----0-0-0-0-0-0-0-0-0-0|
             . . . . . .      . . . . . .     . . . . . . . . . .

[Bridge:]

e|---------------------------------|
B|---------------------------------|
G|---------------------------------|
D|-8-8-8-8-8-8-8-8-8-8-8-8-8-8-8-8-|
A|-8-8-8-8-8-8-8-8-8-8-8-8-8-8-8-8-|
D|-8-8-8-8-8-8-8-8-8-8-8-8-8-8-8-8-|

e|-------------------------------------------------|
B|-------------------------------------------------|
G|-10-10-10-10-10-10-10-10-10-10--12-12-12-12--7-7-|
D|-10-10-10-10-10-10-10-10-10-10--12-12-12-12--7-7-|
A|-8--8--8--8--8--8--8--8--8--8---10-10-10-10--5-5-|
D|-------------------------------------------------|

e|-------------------------------------------------------------------|
B|-------------------------------------------------------------------|
G|-7-7-7-7-7-7-7-7-7-7-7-7-7-7-7-7-7-7-7-7-7-7-7-7-7-7--5-5-5-5--3-3-|
D|-7-7-7-7-7-7-7-7-7-7-7-7-7-7-7-7-7-7-7-7-7-7-7-7-7-7--5-5-5-5--3-3-|
A|-5-5-5-5-5-5-5-5-5-5-5-5-5-5-5-5-5-5-5-5-5-5-5-5-5-5--3-3-3-3--1-1-|
D|-------------------------------------------------------------------|

e|---------------------------------|
B|---------------------------------|
G|---------------------------------|
D|-8-8-8-8-8-8-8-8-8-8-8-8-8-8-8-8-|
A|-8-8-8-8-8-8-8-8-8-8-8-8-8-8-8-8-|
D|-8-8-8-8-8-8-8-8-8-8-8-8-8-8-8-8-|

e|-------------------------------------------------|
B|-------------------------------------------------|
G|-10-10-10-10-10-10-10-10-10-10--12-12-12-12--7-7-|
D|-10-10-10-10-10-10-10-10-10-10--12-12-12-12--7-7-|
A|-8--8--8--8--8--8--8--8--8--8---10-10-10-10--5-5-|
D|-------------------------------------------------|

e|----------------------------------------------------------|
B|----------------------------------------------------------|
G|-7-7-7-7-7-7-7-7-7-7-7-7-7-7-7-7-7-7-7-7-7-7-7-7-7-7--5-5~|
D|-7-7-7-7-7-7-7-7-7-7-7-7-7-7-7-7-7-7-7-7-7-7-7-7-7-7--5-5~|
A|-5-5-5-5-5-5-5-5-5-5-5-5-5-5-5-5-5-5-5-5-5-5-5-5-5-5--3-3~|
D|----------------------------------------------------------|


[Solo:]

e|-----------------------------------------|
B|-8--10-10---8--10-10---8--10-10---8------|
G|------------------------------------10-7-|
D|-----------------------------------------|
A|-----------------------------------------|
D|-----------------------------------------|

e|------------------------------------------|
B|-8--10-10---8--10-10---8--10-10-10-8------|
G|-------------------------------------10-7-|
D|------------------------------------------|
A|------------------------------------------|
D|------------------------------------------|

e|-------------------------------------------|
B|-8--10-10---8--10-10---8--10-10---8--10-10-|
G|-------------------------------------------|
D|-------------------------------------------|
A|-------------------------------------------|
D|-------------------------------------------|

e|-----------------------------------------|
B|-8--10-10---8--10-10---8--10-10-10-8-----|
G|-------------------------------------10-7|
D|-----------------------------------------|
A|-----------------------------------------|
D|-----------------------------------------|

e|-----------------------------------------|
B|-8--10-10---8--10-10---8--10-10-10-8-----|
G|-------------------------------------10-7| x8
D|-----------------------------------------|
A|-----------------------------------------|
D|-----------------------------------------|


[Ending Riff:] (Slower Tempo)

e|----------------------------|
B|----------------------------|
G|-----------10----12/7--7~---|
D|-8----8----10----12/7--7~---|
A|-8----8----8-----10/5--5~---|
D|-8----8---------------------|



************************************

| h  Hammer-on
| /  Slide up, down
| ~  Vibrato

************************************
Suggest correction
Give kudos to tab author, rate the tab!
1 2 3 4 5
comments
print report bad tab
guest
You may want to rate the tab now too:
select rating
Wanna post a correction for this tab? Suggest correction