Oops, an error
Loading. Please wait.

Amour Tab

version 2
version 2

Interactive

14,500 views 9 this week
no commentswrite comment
1 2 3 4 5
x 5
add to favorites
launch autoscroll
font size
0
reset
how to read this tab
guitar tuner
Autoscroll
slow
fast
+/-
esc
set tempo
stop
Help us to improve Ultimate-Guitar.com Take our survey!
×
Author
/\/\/\/\/\/\/\/\/\/\/\/\
\Rammstein   -   Amour /
/Reise, Reise (2004)   \
\/\/\/\/\/\/\/\/\/\/\/\/

/ - Slide up
\ - Slide Down
4b5 - Bend
5r4 - Release Bend
13v - Vibrato


Intro:

Should be played clean, but sounds good with distortion.
Second riff is bass. This is NOT played on a guitar, but I have converted it for you.
~~~~~~~~~~~~~~~~~~~~~~~~~~~~~~~~~~~~~~~~~~~~~~~~~~~~~~~~~~~~~~~~~~~	|
E|--------------------------------------------------------------------8-|
B|----------------------------------------6----8-----8---9---8--6-----8-|
G|5----7--8---/10---8---7h8---5----7---8--------------------------------|
D|----------------------------------------------------------------------|
A|----------------------------------------------------------------------|
E|----------------------------------------------------------------------|
			/\   \/          =	ALPHA
E|----------------------------------------------------------------------|
B|----------------------------------------------------------------------|
G|--------------------------------------------------------------------5-|
D|----------------6-----------3-------------6------------6--------5---5-|
A|--3-------------------------------------------------------------------|
E|----------------------------------------------------------------------|
~~~~~~~~~~~~~~~~~~~~~~~~~~~~~~~~~~~~~~~~~~~~~~~~~~~~~~~~~~~~~~~~~~

Riff 1:
E|----------------------------------------------------------------------|
B|----------------------------------------------------------------------|
G|----------------------------------------------------------------------|
D|---------------------------------------3--------------6---5-----------|
A|3------6----------3-----6-------3\1---------1/3---3-------------------|
E|----------------------------------------------------------------------|
     die Liebe ist.....

Riff 2:
E|----------------------------------------------------------------------|
B|----------------------------------------------------------------------|
G|----------------------------------------------------------------------|
D|-------------------------------------------3--------------------------|
A|3------6----------3-----6-------3\1-----------------------------------|
E|----------------------------------------------------------------------|
			/\   /\  \/      =       BETA
Riff 3:
E|----------------------------------------------------------------------|
B|----------------------------------------------------------------------|
G-----------------------------------------------------------------------|
D|----------------------------------------------0/6------6--------------|
A|3------6----------3-----6-------3\5-----------------6------6----------|
E|----------------------------------------------------------------------|

Riff 4:
E|----------------------------------------------------------------------|
B|----------------------------------------------------------------------|
G|----------------------------------------------------------------------|
D|-------5----------------5---------------------6-----------6----------5|
A|6-----------------6--------------6-----8--------------8---------8----6|
E|----------------------------------------------------------------------|

Riff 5:
E|----------------------------------------------------------------------|
B|----------------------------------------------------------------------|
G|----------------------------------------------------------------------|
D|-------5--------------------------------------5-----------5-----------|
A|6-----------------6---------------6-/--8------------------------------|
E|----------------------------------------------------------------------|

After intro, play Riff 1 three times, and then play Riff 2 once.
Then repeat Riff 1 and Riff 3 three more times.
Then play Riff 4 once wth Riff 5.


I think this may be a little bit off, but it sounds fine.

~~~~~~~~~~~~~~~~~~~~~~~~~~~~~~~~~~~~~~~~~~~~~~~~~~~~~~~~~~~~~~~~~
Chorus 1:
E|----------------------------------------------------------------------|
B|----------------------------------------------------------------------|
G|5------------------------4--------------------------------------------|
D|5--------3---------------4---------------3---------5------------------|
A|3--------3---------------2---------------3---------5------------------|
E|---------1-------------------------------1---------3------------------|
	   Amour, Amour...
Chorus 2:
E|----------------------------------------------------------------------|
B|----------------------------------------------------------------------|
G|5-------10----8--7--8----4---------------10--------12-----------------|
D|5-------10----8--7--8----4---------------10--------12-----------------|
A|3-------8-----6--5--6----2----------------8--------10-----------------|
E|----------------------------------------------------------------------|
			/\  /\  \/  \/   =   GAMMA
Chorus 3:
E|------------------------------------------------------------------------|
B|------------------------------------------------------------------------|
G|------------------------------------------------------------------------|
D|5-------6-----5-----3--------5--5--5--5------6----6--6--6---------------|
A|5-------6-----5-----3--------5--5--5--5------6----6--6--6---------------|
E|3-------4-----3-----1--------3--3--3--3------4----4--4--4---------------|
Amour, Amour...

Chorus 4:
E|----------------------------------------------------------------------|
B|----------------------------------------------------------------------|
G|12-----13----12----10-------12-12-12-12-----13---13-13-13-------------|
D|12-----13----12----10-------12-12-12-12-----13---13-13-13-------------|
A|10-----11----10----8--------10-10-10-10-----11---11-11-11-------------|
E|----------------------------------------------------------------------|
~~~~~~~~~~~~~~~~~~~~~~~~~~~~~~~~~~~~~~~~~~~~~~~~~~~~~~~~~~~

Order:

1. Alpha
2. Beta
3. Alpha
4. Beta
5. Gamma
6. Gamma
7. Beta
8. Gamma
9. Gamma
10. Delta
11. Gamma


Then the Solo:

E|-----------------------------------------------------------------------|
B|12b13---------------------------------12b13----------------------------|
G|------12------------12--13v---12------------12-------------------------|
D|----------13--10v--------------------------------13--10v---12--13v--—12|
A|-----------------------------------------------------------------------|
E|-----------------------------------------------------------------------|
                                           \/  /\   =   DELTA

E|-------------------------------------10-11--10---/16--17--16---/21—21--|
B|12b13---------------13b15----r13---------------------------------------|
G|------12---------------------------------------------------------------|
D|----------13--10v------------------------------------------------------|
A|-----------------------------------------------------------------------|
E|-----------------------------------------------------------------------|


Song Lyrics:

Die Liebe ist ein wildes Tier
sie atmet dich sie sucht nach dir
nistet aufgebrochennen Herzen
geht auf jagt bei Kuss und Kerzen
saugt sich fest an deinen Lippen
gräbt sich Gange durch die Rippen

Refrain:
last sich fallen weich wie Schnee
erst wird es heiß dann kalt
am Ende tut es weh
Amour Amour alle wollen nur dich zähmen
Amour Amour am Ende gefangen zwischen deinen zähnen

die Liebe ist ein wildes Tier
sie beist und kratzt und tritt nach mir
hält mich mit tausend Armen fest
zerrt mich in ihr Liebesnest
frist mich auf mit Haut und und Haaren
und wurgt mich wieder aus nach Tagen und Jahren

Refrain
2x Amour Amour alle wollen dich zähmen
Amour Amour am Ende gefangen zwischen deinen Zähnen

die Liebe ist ein wildes Tier
sie atmet dich sie sucht nach dir
nistet aufgebrochennen Herzen
geht auf jagt bei Kuss und Kerzen
frist mich auf mit Haut und und Haaren
und wurgt mich wieder aus nach Tagen und Jahren

Refrain
2x die Liebe ist ein wildes Tier
in die Falle gehst du ihr
in die Augen starrt sie dir
verzaubert wenn ihr Blick dich trifft

bitte bitte gib mir Gift [x4]


Any questions comments, or corrections, please feel free to e-mail me at supergt50@hotmail.com

~~~~~~~~~~~~~~~~~~~~~~~~~~~~~~~~~~~~~~~~~~~~~~~~~~~~~~~~~~~~~~~~~~~~~~~~
Suggest correction
comments
print report bad tab
guest
You may want to rate the tab now too:
select rating
Wanna post a correction for this tab? Suggest correction