Oops, an error
Loading. Please wait.

Amour Tab

version 3
version 3

Interactive

5,884 views 6 this week
no commentswrite comment
1 2 3 4 5
x 4
add to favorites
launch autoscroll
font size
0
reset
how to read this tab
guitar tuner
Autoscroll
slow
fast
+/-
esc
set tempo
stop
Help us to improve Ultimate-Guitar.com Take our survey!
×
Artist: Rammstein
Song: "Amour" written by Christoph Doom Schneider, Christian Lorenz, Till Lindemann,
Paul Landers, Richard Kruspe-Bernstein and Oliver Riedel
From the album "Reise, Reise" (2004)
Tabbed by Nailed Reaper (reap@front.ru) 16.11.2004

~ - vibrato
\ - slide down

[0:00-0:18]
e|--------6---------------6-8---8-9-8-6--8--9b-|
B|-6--8-9---9-8-9--6--8-9----------------------|
G|---------------------------------------------|
D|---------------------------------------------|
A|---------------------------------------------|
E|---------------------------------------------|

   Die Liebe ist ein wildes Tier... [0:18-0:36]
e|------------------------------------------------------------------------------|
B|------------------------------------------------------------------------------|
G|------------------------------------------------------------------------------|
D|---6--6-----8----11-8---6--6-----8----11-8---6--6-----8----11-8---6--6-----8--|
A|-8---8--8-6---8-8-----8---8--8-6---8-8-----8---8--8-6---8-8-----8---8--8-6----|
E|------------------------------------------------------------------------------|

   Saugt sich fest an deinen Lippen... [0:37-0:59]
e|-------------------------------------------------------------------------------------------|
B|-------------------------------------------------------------------------------------------|
G|-------------------------------------------------------------------------------------------|
D|---6--6-----8----11-8---6--6-----8----11----6--6-----8----11-8---10--10------12--12-12-----|
A|-8---8--8-6---8-8-----8---8--8-6---8-8----8---8--8-6---8-8-----12---12--12-10---10-----10--|
E|-------------------------------------------------------------------------------------------|

   Amour Amour... [1:00-1:17]
e|--------6---------------6-8---8-9-8-6--8--9b-|
B|-6--8-9---9-8-9--6--8-9----------------------|
G|---------------------------------------------|
D|---------------------------------------------|
A|---------------------------------------------|
E|---------------------------------------------|

   Die Liebe ist ein wildes Tier... [1:18-1:36]
e|------------------------------------------------------------------------------|
B|------------------------------------------------------------------------------|
G|------------------------------------------------------------------------------|
D|---6--6-----8----11-8---6--6-----8----11-8---6--6-----8----11-8---6--6-----8--|
A|-8---8--8-6---8-8-----8---8--8-6---8-8-----8---8--8-6---8-8-----8---8--8-6----|
E|------------------------------------------------------------------------------|

   Frisst mich auf mit Haut... [1:37-1:58]
e|-------------------------------------------------------------------------------------------|
B|-------------------------------------------------------------------------------------------|
G|-------------------------------------------------------------------------------------------|
D|---6--6-----8----11-8---6--6-----8----11----6--6-----8----11-8---10--10------12--12-12-----|
A|-8---8--8-6---8-8-----8---8--8-6---8-8----8---8--8-6---8-8-----12---12--12-10---10-----10--|
E|-------------------------------------------------------------------------------------------|

   Amour Amour... [1:59-2:36] with distortion and tremolo
e|--------------------------------------------------------------------------------------|\
B|--------------------------------------------------------------------------------------| \
G|--------------------------------------------------------------------------------------|  \ repeat
D|-10--12-13-15--13-12-13--10--12-13-15--17--17-18-17-18-17-15-13--17-18-17-18-17-15-13-|  / 2 times
A|-8---10-11-13--11-10-11--8---10-11-13--15--15-16-15-16-15-13-11--15-16-15-16-15-13-11-| /
E|--------------------------------------------------------------------------------------|/

                        Die Liebe ist ein wildes Tier... [2:37-2:59]
e|---------------------------------------------------------------------------------------------------|
B|---------------------------------------------------------------------------------------------------|
G|---------------------------------------------------------------------------------------------------|
D|---6--6-----8----11-8---6--6-----8----11-8---6--6-----8----11-8---6--6-----8----11-8---6--6-----8--|
A|-8---8--8-6---8-8-----8---8--8-6---8-8-----8---8--8-6---8-8-----8---8--8-6---8-8-----8---8--8-6----|
E|---------------------------------------------------------------------------------------------------|

   Frisst mich auf mit Haut... [2:59-3:20]
e|-------------------------------------------------------------------------------------------|
B|-------------------------------------------------------------------------------------------|
G|-------------------------------------------------------------------------------------------|
D|---6--6-----8----11-8---6--6-----8----11----6--6-----8----11-8---10--10------12--12-12-----|
A|-8---8--8-6---8-8-----8---8--8-6---8-8----8---8--8-6---8-8-----12---12--12-10---10-----10--|
E|-------------------------------------------------------------------------------------------|

   Amour Amour... [3:21-3:58] with distortion and tremolo
e|--------------------------------------------------------------------------------------|\
B|--------------------------------------------------------------------------------------| \
G|--------------------------------------------------------------------------------------|  \ repeat
D|-10--12-13-15--13-12-13--10--12-13-15--17--17-18-17-18-17-15-13--17-18-17-18-17-15-13-|  / 2 times
A|-8---10-11-13--11-10-11--8---10-11-13--15--15-16-15-16-15-13-11--15-16-15-16-15-13-11-| /
E|--------------------------------------------------------------------------------------|/

solo [3:59-4:20] with distortion
e|-12b13-9-------8~\9~8~-12b13-9---------------12b13-9-------12b13~12~-14~15~14~-15~16~15~-18-19~-|
B|---------11--------------------11----8~\9~8~---------11-----------------------------------------|
G|------------10--------------------10---------------------10-------------------------------------|
D|------------------------------------------------------------------------------------------------|
A|------------------------------------------------------------------------------------------------|
E|------------------------------------------------------------------------------------------------|

rhythm for solo [3:59-4:18] with distortion and tremolo
e|-----------------------------------------|
B|-----------------------------------------|
G|-----------------------------------------|
D|-10---6-5--6----------------10-12--14-15-|
A|-8----4-3--4---7-6--7---6---8--10--12-13-|
E|---------------5-4--5---4----------------|

   Die Liebe ist ein wildes Tier... [4:18-4:36]
e|--------------------------------------------------------------------------------------|
B|--------------------------------------------------------------------------------------|
G|--------------------------------------------------------------------------------------|
D|-10--12-13-15--13-12-13--10--12-13-15--17--17-18-17-18-17-15-13--17-18-17-18-17-15-13-|
A|-8---10-11-13--11-10-11--8---10-11-13--15--15-16-15-16-15-13-11--15-16-15-16-15-13-11-|
E|--------------------------------------------------------------------------------------|

I'm not sure about rhythm parts for chorus and solo but they may be right.
I've got only acoustic guitar and that's why I can't figure heavy riffs like last riff in this song.

UP THE IRONS!!!
Suggest correction
comments
print report bad tab
guest
You may want to rate the tab now too:
select rating
Wanna post a correction for this tab? Suggest correction