Oops, an error
Loading. Please wait.

Amour Tab

version 3
version 3

Interactive

14,437 views 18 this week
no commentswrite comment
1 2 3 4 5
x 5
add to favorites
launch autoscroll
font size
0
reset
how to read this tab
guitar tuner
×
Best way to learn
"Amour"
Autoscroll
slow
fast
+/-
esc
set tempo
stop
Tuning: D-A-D-G-B-E

[Verse 1]
e|-----------------------------------------------|
B|-----------------------------------------------|
G|---------------------------------------1-h-0---|
D|------1-------1------------3--------1----------|
A|---3-------3------3----1--------3--------------|
E|-----------------------------------------------|

e|-----------------------------------------------|
B|-----------------------------------------------|
G|---------------------------------------1-h-0---|
D|------1-------1------------3--------1----------|
A|---3-------3------3----1--------3--------------|
E|-----------------------------------------------|

e|-----------------------------------------------|
B|-----------------------------------------------|
G|---------------------------------------1-h-0---|
D|------1-------1------------3--------1----------|
A|---3-------3------3----1--------3--------------|
E|-----------------------------------------------|

e|-----------------------------------------------|
B|-----------------------------------------------|
G|-----------------------------------------------|
D|------1-------1------------3-------------------|
A|---3-------3------3----1-----------------------|
E|-----------------------------------------------|

e|-----------------------------------------------|
B|-----------------------------------------------|
G|---------------------------------------1-h-0---|
D|------1-------1------------3--------1----------|
A|---3-------3------3----1--------3--------------|
E|-----------------------------------------------|

e|-----------------------------------------------|
B|-----------------------------------------------|
G|---------------------------------------1-h-0---|
D|------1-------1------------3--------1----------|
A|---3-------3------3----1--------3--------------|
E|-----------------------------------------------|

e|-----------------------------------------------|
B|-----------------------------------------------|
G|---------------------------------------1-h-0---|
D|------1-------1------------3--------1----------|
A|---3-------3------3----1--------3--------------|
E|-----------------------------------------------|

e|-----------------------------------------------|
B|-----------------------------------------------|
G|---0----0--------1----1------------------------|
D|-1----1----1---3----3----3--1------------------|
A|-----------------------------------------------|
E|-----------------------------------------------|

[Verse 2]
e|-----------------------------------------------|
B|-----------------------------------------------|
G|---------------------------------------1-h-0---|
D|------1-------1------------3--------1----------|
A|---3-------3------3----1--------3--------------|
E|-----------------------------------------------|

e|-----------------------------------------------|
B|-----------------------------------------------|
G|---------------------------------------1-h-0---|
D|------1-------1------------3--------1----------|
A|---3-------3------3----1--------3--------------|
E|-----------------------------------------------|

e|-----------------------------------------------|
B|-----------------------------------------------|
G|---------------------------------------1-h-0---|
D|------1-------1------------3--------1----------|
A|---3-------3------3----1--------3--------------|
E|-----------------------------------------------|

e|-----------------------------------------------|
B|-----------------------------------------------|
G|-----------------------------------------------|
D|------1-------1------------3-------------------|
A|---3-------3------3----1-----------------------|
E|-----------------------------------------------|

e|-----------------------------------------------|
B|-----------------------------------------------|
G|---------------------------------------1-h-0---|
D|------1-------1------------3--------1----------|
A|---3-------3------3----1--------3--------------|
E|-----------------------------------------------|

e|-----------------------------------------------|
B|-----------------------------------------------|
G|---------------------------------------1-h-0---|
D|------1-------1------------3--------1----------|
A|---3-------3------3----1--------3--------------|
E|-----------------------------------------------|

e|-----------------------------------------------|
B|-----------------------------------------------|
G|---------------------------------------1-h-0---|
D|------1-------1------------3--------1----------|
A|---3-------3------3----1--------3--------------|
E|-----------------------------------------------|

e|-----------------------------------------------|
B|-----------------------------------------------|
G|---0----0--------1----1------------------------|
D|-1----1----1---3----3----3--1------------------|
A|-----------------------------------------------|
E|-----------------------------------------------|

[Chorus 2]
e|-----------------------------------------------|
B|-----------------------------------------------|
G|-----------------------------------------------|
D|--10-----3-------------------------------------|
A|--10-----3-------------------------------------|
E|--10-----3-------------------------------------|

e|-----------------------------------------------|
B|-----------------------------------------------|
G|-----------------------------------------------|
D|--10-----3-------------------------------------|
A|--10-----3-------------------------------------|
E|--10-----3-------------------------------------|

e|-----------------------------------------------|
B|-----------------------------------------------|
G|-----------------------------------------------|
D|--5-----3--------------------------------------|
A|--5-----3--------------------------------------|
E|--5-----3--------------------------------------|

e|-----------------------------------------------|
B|-----------------------------------------------|
G|-----------------------------------------------|
D|--5-----6--------------------------------------|
A|--5-----6--------------------------------------|
E|--5-----6--------------------------------------|

(2:18)
e|-----------------------------------------------|
B|-----------------------------------------------|
G|-----------------------------------------------|
D|--10-----6-------------------------------------|
A|--10-----6-------------------------------------|
E|--10-----6-------------------------------------|

e|-----------------------------------------------|
B|-----------------------------------------------|
G|-----------------------------------------------|
D|--5-----3--------------------------------------|
A|--5-----3--------------------------------------|
E|--5-----3--------------------------------------|

e|-----------------------------------------------|
B|-----------------------------------------------|
G|-----------------------------------------------|
D|--1-----3--------------------------------------|
A|--1-----3--------------------------------------|
E|--1-----3--------------------------------------|

e|-----------------------------------------------|
B|-----------------------------------------------|
G|-----------------------------------------------|
D|--5-----6--------------------------------------|
A|--5-----6--------------------------------------|
E|--5-----6--------------------------------------|

[Verse 3]
e|-----------------------------------------------|
B|-----------------------------------------------|
G|---------------------------------------1-h-0---|
D|------1-------1------------3--------1----------|
A|---3-------3------3----1--------3--------------|
E|-----------------------------------------------|

e|-----------------------------------------------|
B|-----------------------------------------------|
G|-----------------------------------------------|
D|------1-------1------------3-------------------|
A|---3-------3------3----1-----------------------|
E|-----------------------------------------------|

e|-----------------------------------------------|
B|-----------------------------------------------|
G|---------------------------------------1-h-0---|
D|------1-------1------------3--------1----------|
A|---3-------3------3----1--------3--------------|
E|-----------------------------------------------|

e|-----------------------------------------------|
B|-----------------------------------------------|
G|---------------------------------------1-h-0---|
D|------1-------1------------3--------1----------|
A|---3-------3------3----1--------3--------------|
E|-----------------------------------------------|

e|-----------------------------------------------|
B|-----------------------------------------------|
G|---------------------------------------1-h-0---|
D|------1-------1------------3--------1----------|
A|---3-------3------3----1--------3--------------|
E|-----------------------------------------------|

e|-----------------------------------------------|
B|-----------------------------------------------|
G|---0----0--------1----1------------------------|
D|-1----1----1---3----3----3--1------------------|
A|-----------------------------------------------|
E|-----------------------------------------------|

[Chorus 3]
e|-----------------------------------------------|
B|-----------------------------------------------|
G|-----------------------------------------------|
D|--10-----6-------------------------------------|
A|--10-----6-------------------------------------|
E|--10-----6-------------------------------------|

e|-----------------------------------------------|
B|-----------------------------------------------|
G|-----------------------------------------------|
D|--5-----3--------------------------------------|
A|--5-----3--------------------------------------|
E|--5-----3--------------------------------------|

e|-----------------------------------------------|
B|-----------------------------------------------|
G|-----------------------------------------------|
D|--1-----3--------------------------------------|
A|--1-----3--------------------------------------|
E|--1-----3--------------------------------------|

e|-----------------------------------------------|
B|-----------------------------------------------|
G|-----------------------------------------------|
D|--5-----6--------------------------------------|
A|--5-----6--------------------------------------|
E|--5-----6--------------------------------------|

(3:41) 
("Die Liebe ist ein wilde Tier ...")
e|-----------------------------------------------|
B|-----------------------------------------------|
G|-----------------------------------------------|
D|--10-----6-------------------------------------|
A|--10-----6-------------------------------------|
E|--10-----6-------------------------------------|

e|-----------------------------------------------|
B|-----------------------------------------------|
G|-----------------------------------------------|
D|--5-----3--------------------------------------|
A|--5-----3--------------------------------------|
E|--5-----3--------------------------------------|

e|-----------------------------------------------|
B|-----------------------------------------------|
G|-----------------------------------------------|
D|--1-----3--------------------------------------|
A|--1-----3--------------------------------------|
E|--1-----3--------------------------------------|

e|-----------------------------------------------|
B|-----------------------------------------------|
G|-----------------------------------------------|
D|--5-----6--------------------------------------|
A|--5-----6--------------------------------------|
E|--5-----6--------------------------------------|

[Solo] 
(4:00)
e|------------------------------------------------|
B|------------------------------------------------|
G|--16(17)----------------------------------------|
D|------------------------------------------------|
A|----------18-17-15----17~(18)--17~--------------|
E|------------------------------------------------|

e|-------------------------------------------------|
B|-------------------------------------------------|
G|--16(17)-----------------------------------------|
D|-------------------------------------------------|
A|----------18-17-15---17(18)-17~------------------|
E|-------------------------------------------------|

e|------------------------------------------------|
B|-----------------------------15~----------------|
G|--16(17)-------------16(17~)-----17~------------|
D|------------------------------------------------|
A|----------18-17-15------------------------------|
E|------------------------------------------------|

e|---------------15~--16--15~---------------------|
B|-15~-16---15~-----------------------------------|
G|------------------------------------------------|
D|------------------------------------------------|
A|------------------------------------------------|
E|------------------------------------------------|

[Chorus]
e|-----------------------------------------------|
B|-----------------------------------------------|
G|-----------------------------------------------|
D|--10-----6-------------------------------------|
A|--10-----6-------------------------------------|
E|--10-----6-------------------------------------|

e|-----------------------------------------------|
B|-----------------------------------------------|
G|-----------------------------------------------|
D|--5-----3--------------------------------------|
A|--5-----3--------------------------------------|
E|--5-----3--------------------------------------|

e|-----------------------------------------------|
B|-----------------------------------------------|
G|-----------------------------------------------|
D|--1-----3--------------------------------------|
A|--1-----3--------------------------------------|
E|--1-----3--------------------------------------|

e|-----------------------------------------------|
B|-----------------------------------------------|
G|-----------------------------------------------|
D|--5-----6--------------------------------------|
A|--5-----6--------------------------------------|
E|--5-----6--------------------------------------|

[Riff] 
("Bitte bitte geb mir Gift...")
e|-----------------------------------------------|
B|-----------------------------------------------|
G|-----------------------------------------------|
D|--10--10--10--10----9(10)-----9(10)------------|
A|--10--10--10--10----9(10)-----9(10)------------|
E|--10--10--10--10----9(10)-----9(10)------------|

e|-----------------------------------------------|
B|-----------------------------------------------|
G|-----------------------------------------------|
D|--10--10--10--10----9(10)-----9(10)------------|
A|--10--10--10--10----9(10)-----9(10)------------|
E|--10--10--10--10----9(10)-----9(10)------------|

e|-----------------------------------------------|
B|-----------------------------------------------|
G|-----------------------------------------------|
D|--10--10--10--10----9(10)------10--------------|
A|--10--10--10--10----9(10)------10--------------|
E|--10--10--10--10----9(10)------10--------------|


************************************

| h    Hammer-on
| (n)  Ghost note
| ~    Vibrato

************************************
Suggest correction
comments
print report bad tab
guest
You may want to rate the tab now too:
select rating
Wanna post a correction for this tab? Suggest correction