Oops, an error
Loading. Please wait.

Amour Tab

version 7
version 7

Interactive

2,883 views 1 this week
no commentswrite comment
1 2 3 4 5
3 more votes to show rating
add to favorites
launch autoscroll
font size
0
reset
how to read this tab
guitar tuner
Autoscroll
slow
fast
+/-
esc
set tempo
stop
Help us to improve Ultimate-Guitar.com Take our survey!
×
vitesse : 104

Rithme : 4/4

Tuning : CGCFAD

Intro (basse convertie en guitare + guitare)
|--------0-2---3-|----2---0-2-----|--------0-2---3-|--------5-------|
|3---------------|----------------|3---------------|----------------|
|----------------|0---------------|----------------|0---------------|
|----0-----------|----------------|0---------------|----------------|
|----------------|----------------|----------------|----------------|
|----------------|----------------|----------------|----------------|

                                                    (wood stick solo)
|------------5---|7-----5-----3---|----5-----------|10--------------|
|----------------|----------------|----------------|----------------|
|----------------|----------------|----------------|----------------|
|4---------------|2---------------|4---------------|2---------------|
|----------------|----------------|----------------|----------------|
|----------------|----------------|----------------|----------------|


1st verse
Richard
Clean guitar
|----------------|----------------|
|----------------|----------------|
|----------------|----------------|
|----3-----3-----|----5-------8-7-|x3
|5-------5-----5-|3------/5-5-----|
|----------------|----------------|


|----------------|----------------|
|----------------|----------------|
|----------------|----------------|
|----3-----3-----|----5-----------|
|5-------5-----5-|3---------------|
|----------------|----------------|


|----------------|----------------|
|----------------|----------------|
|----------------|----------------|
|----3-----3-----|----5-------8-7-|x3
|5-------5-----5-|3------/5-5-----|
|----------------|----------------|


|----------------|--------------------|----------------|
|----------------|--------------------|----------------|
|----------------|--------------------|----------------|
|----7-----7-----|-----8------8-------|7*--------------|
|8-------8-----8-|10-------10---10-10-|8---------------|
|----------------|--------------------|----------------|
*dans le dernier accord, le 7 n'est pas obligatoire, mais je trouve que ça sonne mieux

Paul (après que Richard ait joué les 8 premières mesures)
Clean guitar
|------------------|-------------------|
|------------------|-------------------|
|------------------|-------------------|
|----3-----3-------|----5---8-----8----|x3
|5-------5-----5/7-|------7-10-10---10-|
|------------------|-------------------|


|----------------|--------------------|----------------|
|----------------|--------------------|----------------|
|----------------|--------------------|----------------|
|----7-----7-----|-----8------8-------|3---------------|
|8-------8-----8-|10-------10---10-10-|5---------------|
|----------------|--------------------|----------------|


2nd verse
Richard (fait la même affaire que pour le 1st verse)


Paul
|------------------|-------------------|
|------------------|-------------------|
|------------------|-------------------|
|----3-----3-------|----5---8-----8----|x3
|5-------5-----5/7-|------7-10-10---10-|
|------------------|-------------------|


|----------------|-----------------|
|----------------|-----------------|
|----------------|-----------------|
|----7-----7-----|8----------------|
|8-------8-----8-|10---------------|
|----------------|-----------------|


|------------------|-------------------|
|------------------|-------------------|
|------------------|-------------------|
|----3-----3-------|----5---8-----8----|x3
|5-------5-----5/7-|------7-10-10---10-|
|------------------|-------------------|


|----------------|--------------------|----------------|
|----------------|--------------------|----------------|
|----------------|--------------------|----------------|
|----7-----7-----|-----8------8-------|3---------------|
|8-------8-----8-|10-------10---10-10-|5---------------|
|----------------|--------------------|----------------|


3rd verse
Richard (fait la même affaire que pour le 1st et 2nd verses, mais fait 4 fois les 
plutôt que 3)
Paul (fait la même affaire)

First Chorus
|----------------|----------------|----------------|----------------|
|----------------|----------------|----------------|----------------|
|7-7-7-7-7-7-7-7-|7-7-7-7-7-7-7-7-|----------------|----------------|
|7-7-7-7-7-7-7-7-|7-7-7-7-7-7-7-7-|8-8-8-8-8-8-8-8-|8-8-8-8-8-8-8-8-|
|5-5-5-5-5-5-5-5-|5-5-5-5-5-5-5-5-|8-8-8-8-8-8-8-8-|8-8-8-8-8-8-8-8-|
|----------------|----------------|8-8-8-8-8-8-8-8-|8-8-8-8-8-8-8-8-|


|----------------|----------------|----------------|----------------|
|----------------|----------------|----------------|----------------|
|7-7-7-7-7-7-7-7-|7-7-7-7-7-7-7-7-|----------------|----------------|
|7-7-7-7-7-7-7-7-|7-7-7-7-7-7-7-7-|8-8-8-8-8-8-8-8-|8-8-8-8-8-8-8-8-|
|5-5-5-5-5-5-5-5-|5-5-5-5-5-5-5-5-|8-8-8-8-8-8-8-8-|8-8-8-8-8-8-8-8-|
|----------------|----------------|8-8-8-8-8-8-8-8-|8-8-8-8-8-8-8-8-|


|----------------|----------------|----------------|----------------|
|----------------|----------------|----------------|----------------|
|----------------|----------------|----------------|----------------|
|7-7-7-7-7-7-7-7-|7-7-7-7-7-7-7-7-|5-5-5-5-5-5-5-5-|5-5-5-5-5-5-5-5-|
|7-7-7-7-7-7-7-7-|7-7-7-7-7-7-7-7-|5-5-5-5-5-5-5-5-|5-5-5-5-5-5-5-5-|
|7-7-7-7-7-7-7-7-|7-7-7-7-7-7-7-7-|5-5-5-5-5-5-5-5-|5-5-5-5-5-5-5-5-|


|----------------|----------------|----------------|----------------|
|----------------|----------------|----------------|----------------|
|----------------|----------------|----------------|----------------|
|7-7-7-7-7-7-7-7-|7-7-7-7-7-7-7-7-|8-8-8-8-8-8-8-8-|8-8-8-8-8-8-8-8-|
|7-7-7-7-7-7-7-7-|7-7-7-7-7-7-7-7-|8-8-8-8-8-8-8-8-|8-8-8-8-8-8-8-8-|
|7-7-7-7-7-7-7-7-|7-7-7-7-7-7-7-7-|8-8-8-8-8-8-8-8-|8-8-8-8-8-8-8-8-|


|----------------|----------------|----------------|----------------|
|----------------|----------------|----------------|----------------|
|7-7-7-7-7-7-7-7-|7-7-7-7-7-7-7-7-|----------------|----------------|
|7-7-7-7-7-7-7-7-|7-7-7-7-7-7-7-7-|8-8-8-8-8-8-8-8-|8-8-8-8-8-8-8-8-|
|5-5-5-5-5-5-5-5-|5-5-5-5-5-5-5-5-|8-8-8-8-8-8-8-8-|8-8-8-8-8-8-8-8-|
|----------------|----------------|8-8-8-8-8-8-8-8-|8-8-8-8-8-8-8-8-|


|----------------|----------------|----------------|----------------|
|----------------|----------------|----------------|----------------|
|----------------|----------------|----------------|----------------|
|7-7-7-7-7-7-7-7-|7-7-7-7-7-7-7-7-|5-5-5-5-5-5-5-5-|5-5-5-5-5-5-5-5-|
|7-7-7-7-7-7-7-7-|7-7-7-7-7-7-7-7-|5-5-5-5-5-5-5-5-|5-5-5-5-5-5-5-5-|
|7-7-7-7-7-7-7-7-|7-7-7-7-7-7-7-7-|5-5-5-5-5-5-5-5-|5-5-5-5-5-5-5-5-|


|----------------|----------------|----------------|----------------|
|----------------|----------------|----------------|----------------|
|----------------|----------------|----------------|----------------|
|3-3-3-3-3-3-3-3-|3-3-3-3-3-3-3-3-|5-5-5-5-5-5-5-5-|5-5-5-5-5-5-5-5-|
|3-3-3-3-3-3-3-3-|3-3-3-3-3-3-3-3-|5-5-5-5-5-5-5-5-|5-5-5-5-5-5-5-5-|
|3-3-3-3-3-3-3-3-|3-3-3-3-3-3-3-3-|5-5-5-5-5-5-5-5-|5-5-5-5-5-5-5-5-|


|----------------|----------------|----------------|----------------|
|----------------|----------------|----------------|----------------|
|----------------|----------------|----------------|----------------|
|7-7-7-7-7-7-7-7-|7-7-7-7-7-7-7-7-|8-8-8-8-8-8-8-8-|8-8-8-8-8-8-8-8-|
|7-7-7-7-7-7-7-7-|7-7-7-7-7-7-7-7-|8-8-8-8-8-8-8-8-|8-8-8-8-8-8-8-8-|
|7-7-7-7-7-7-7-7-|7-7-7-7-7-7-7-7-|8-8-8-8-8-8-8-8-|8-8-8-8-8-8-8-8-|


Les autres chorus :
|----------------|----------------|----------------|----------------|
|----------------|----------------|----------------|----------------|
|7-7-7-7-7-7-7-7-|7-7-7-7-7-7-7-7-|----------------|----------------|
|7-7-7-7-7-7-7-7-|7-7-7-7-7-7-7-7-|8-8-8-8-8-8-8-8-|8-8-8-8-8-8-8-8-|
|5-5-5-5-5-5-5-5-|5-5-5-5-5-5-5-5-|8-8-8-8-8-8-8-8-|8-8-8-8-8-8-8-8-|
|----------------|----------------|8-8-8-8-8-8-8-8-|8-8-8-8-8-8-8-8-|


|----------------|----------------|----------------|----------------|
|----------------|----------------|----------------|----------------|
|----------------|----------------|----------------|----------------|
|7-7-7-7-7-7-7-7-|7-7-7-7-7-7-7-7-|5-5-5-5-5-5-5-5-|5-5-5-5-5-5-5-5-|
|7-7-7-7-7-7-7-7-|7-7-7-7-7-7-7-7-|5-5-5-5-5-5-5-5-|5-5-5-5-5-5-5-5-|
|7-7-7-7-7-7-7-7-|7-7-7-7-7-7-7-7-|5-5-5-5-5-5-5-5-|5-5-5-5-5-5-5-5-|


|----------------|----------------|----------------|----------------|
|----------------|----------------|----------------|----------------|
|----------------|----------------|----------------|----------------|
|3-3-3-3-3-3-3-3-|3-3-3-3-3-3-3-3-|5-5-5-5-5-5-5-5-|5-5-5-5-5-5-5-5-|
|3-3-3-3-3-3-3-3-|3-3-3-3-3-3-3-3-|5-5-5-5-5-5-5-5-|5-5-5-5-5-5-5-5-|
|3-3-3-3-3-3-3-3-|3-3-3-3-3-3-3-3-|5-5-5-5-5-5-5-5-|5-5-5-5-5-5-5-5-|


|----------------|----------------|----------------|----------------|
|----------------|----------------|----------------|----------------|
|----------------|----------------|----------------|----------------|
|7-7-7-7-7-7-7-7-|7-7-7-7-7-7-7-7-|8-8-8-8-8-8-8-8-|8-8-8-8-8-8-8-8-|
|7-7-7-7-7-7-7-7-|7-7-7-7-7-7-7-7-|8-8-8-8-8-8-8-8-|8-8-8-8-8-8-8-8-|
|7-7-7-7-7-7-7-7-|7-7-7-7-7-7-7-7-|8-8-8-8-8-8-8-8-|8-8-8-8-8-8-8-8-|


Solo (avec vibrato [~])
--------------|
--------------|
--14~(fade in)|
--------------|
--------------|
--------------|


|---------------------|-----------------|-----------------|------------|
|14/15\10~---------10/|11~~~~\10~~~~-13/|15\10~-----------|------------|
|---------10/7~~------|-----------------|------10/7~~~~-9/|10~~~~\9~~~~|
|---------------------|-----------------|-----------------|------------|
|---------------------|-----------------|-----------------|------------|
|---------------------|-----------------|-----------------|------------|


|---------------------|--------------|---------16~/|17~~~\16~~~22~-|22~-|
|13/15\10~---------15/|17~~-15~~-17~/|18~~\17~~----|---------------|----|
|--------10/7~~-------|--------------|-------------|---------------|----|
|---------------------|--------------|-------------|---------------|----|
|---------------------|--------------|-------------|---------------|----|
|---------------------|--------------|-------------|---------------|----|


Dernier riff

2 guitaristes font ces parties (avec pizzicato [.]):
|----------------|----------------|
|----------------|----------------|
|7-7-7-7-7-7-8-8-|7-7-7-7-7-8-8-8-|
|7-7-7-7-7-7-8-8-|7-7-7-7-7-8-8-8-|x4
|5-5-5-5-5-5-6-6-|5-5-5-5-5-6-6-6-|
|----------------|----------------|
 .           . .            . . .

|----------------|----------------|
|----------------|----------------|
|----------------|----------------|
|0-0-0-0-0-0-1-1-|0-0-0-0-0-1-1-1-|x4
|0-0-0-0-0-0-1-1-|0-0-0-0-0-1-1-1-|
|0-0-0-0-0-0-1-1-|0-0-0-0-0-1-1-1-|
 .           . .            . . .
Suggest correction
Give kudos to tab author, rate the tab!
1 2 3 4 5
comments
print report bad tab
guest
You may want to rate the tab now too:
select rating
Wanna post a correction for this tab? Suggest correction