Oops, an error
Loading. Please wait.

Asche Zu Asche Tab

version 3
version 3
13,472 views 15 this week
5 commentsread comments
1 2 3 4 5
x 9
add to favorites
launch autoscroll
font size
0
reset
how to read this tab
guitar tuner
Autoscroll
slow
fast
+/-
esc
set tempo
stop
Help us to improve Ultimate-Guitar.com Take our survey!
×
Author
Asche zu Asche
 
 Standard Tuning
 |-e-|
 |-B-|
 |-G-|
 |-D-|
 |-A-|
 |-E-|
 
 
 |---------------------------------|
 |---------------------------------|
 |---------------------------------|
 |---------7-------8-----7---5-----|
 |-5p2-----7-------8-----7---5-----|
 |-3p0-0-0-5-0-0-0-6-0-0-5-0-3-0-0-|
       pm.]  pm...]  pm.]  pm  pm.]
 
 
 One part goes
 |---------------------------------------------|
 |---------------------------------------------|
 |---------------------------------------------|
 |---------7-----------------------------------|
 |-5p2-----7-----------------------------------|
 |-3p0-0-0-5-0-0-0--6-6-6--6-6-6--6-6-6--6-6-6-|
Suggest correction
comments
print report bad tab
5 comments total. Showing first comments.
-2 reply
AgentHappyDay 10 Jul 03, 2007 01:22 PM

i thought rammstein played in drop d?..if so, it would be (see below) right? and the second riff, insted of 6's, they would be 8's

D|---------7-------8-----7---5-----
A|-5p2-----7-------8-----7---5-----
D|-5p2-0-0-7-0-0-0-8-0-0-7-0-5-0-0-

0 reply
AgentHappyDay 10 Jul 03, 2007 01:22 PM

plus this is easier imho

+1 reply
Closure777 10 Jul 20, 2007 07:43 PM

actually itd make more sense in standard. think about it. if it was drop D itd actually be
D|---------7-------8-----7---5-----
A|-5p2-----7-------8-----7---5-----
D|-5p2-2-2-7-2-2-2-8-2-2-7-2-5-2-2-

which if you place a capo on the second fret would actually be easier to play. but otherwise standards easy. besides, its an easy song lol.

guest
You may want to rate the tab now too:
select rating
Wanna post a correction for this tab? Suggest correction