Oops, an error
Loading. Please wait.

Bck Dich Tab

version 2
version 2

Whole song

Interactive

8,873 views 3 this week
no commentswrite comment
1 2 3 4 5
x 5
add to favorites
launch autoscroll
font size
0
reset
how to read this tab
guitar tuner
Autoscroll
slow
fast
+/-
esc
set tempo
stop
Help us to improve Ultimate-Guitar.com Take our survey!
×
Author
Difficulty
Tuning
novice
D A D G B E
Main riff
e|-----------------------------------||-----------------------------------|
B|-----------------------------------||-----------------------------------|
G|-----------------------------------||*---------------------------------*|
D|--0---3---2---3---5---3---0-2-3-0--||*-----3---2---3---5---3---0-2-3-0-*|
A|--0---3---2---3---5---3---0-2-3-0--||------3---2---3---5---3---0-2-3-0--|
D|--0-0-3-0-2-0-3-0-5-0-3-0-0-2-3-0--||--0-0-3-0-2-0-3-0-5-0-3-0-0-2-3-0--|
pm    .   .   .   .   .   .              . .   .   .   .   .   .


Verse
[ With \"WAH-WAH\" and Lesley ]
e|-----------------------------------|   |-----------------------------------|
B|-----------------------------------|   |-----------------------------------|
G|*---------------------------------*|   |-----------------------------------|
D|*---------------------------------*|   |--------------------------0-2-3-0--|
A|-----------------------------------|   |--------------------------0-2-3-0--|
D|--0-0-3-0-2-0-3-0-5-0-3-0-0-2-3-0--|   |--0-0-3-0-2-0-3-0-5-0-3-0-0-2-3-0--|
pm  . . . . . . . . . . . . . . . .         . . . . . . . . . . . .


Bridge
e|---------------------------------------------------------------------------------------------------|
B|---------------------------------------------------------------------------------------------------|
G|---------------------------------------------------------------------------------------------------|
D|----1---1---1---1---1---1---1---1-0---3---2---3---5---3---0-2-3-0-----3---2---3---5---3---0-2-3-0--|
A|----1---1---1---1---1---1---1---1-0---3---2---3---5---3---0-2-3-0-----3---2---3---5---3---0-2-3-0--|
D|--1-1-1-1-1-1-1-1-1-1-1-1-1-1-1-1-0-0-3-0-2-0-3-0-5-0-3-0-0-2-3-0-0-0-3-0-2-0-3-0-5-0-3-0-0-2-3-0--|
pm  .   .   .   .   .   .   .   .     .   .   .   .   .   .         . .   .   .   .   .  
.


e|-----------------------------------------------|
B|-----------------------------------------------|
G|-----------------------------------------------|
D|----1---1---1---1---1---1---1---1-0-(sustain)--|
A|----1---1---1---1---1---1---1---1-0-(sustain)--|
D|--1-1-1-1-1-1-1-1-1-1-1-1-1-1-1-1-0-(sustain)--|
pm  .   .   .   .   .   .   .   .


Ending
e|-----------------------------------|   |-----|
B|-----------------------------------|   |-----|
G|*---------------------------------*|   |-----|
D|*---1---1---1---1---1---1---1---1-*|x2 |--0--|
A|----1---1---1---1---1---1---1---1--|   |--0--|
D|--1-1-1-1-1-1-1-1-1-1-1-1-1-1-1-1--|   |--0--|
pm  .   .   .   .   .   .   .   .


pm . - palm mute
Suggest correction
comments
print report bad tab
guest
You may want to rate the tab now too:
select rating
Wanna post a correction for this tab? Suggest correction