Oops, an error
Loading. Please wait.

Benzin Bass Tab

version 3
version 3

Whole song

2,390 views 3 this week
no commentswrite comment
1 2 3 4 5
accurate
x 3
add to favorites
launch autoscroll
font size
0
reset
guitar tuner
Autoscroll
slow
fast
+/-
esc
set tempo
stop
Help us to improve Ultimate-Guitar.com Take our survey!
×
Intro:
G|----------------|----------------|----------------|----------------|
D|----------------|----------------|----------------|----------------|
A|3-3-3-3-3-3-3-3-|2-2-2-2-2-2-2-2-|3-3-3-3-3-3-3-3-|2-2-2-2-2-5-6-6-|
E|----------------|----------------|----------------|----------------|
                                                                       X2
G|----------------|----------------|----------------|----------------|
D|----------------|----------------|----------------|----------------|
A|3-3-3-3-3-3-3-3-|2-2-2-2-2-2-2-2-|3-3-3-3-3-3-3-3-|2-2-2-2-2-5-6-6-| 
E|----------------|----------------|----------------|----------------|

Refr:
G|----------------|----------------|----------------|----------------|
D|----------------|----------------|----------------|----------------|
A|3-----3---3-3---|2-----2---2-2---|3-----3---3-3---|2-----2---5-6-6-| X4
E|----------------|----------------|----------------|----------------|

Chorus
G|----------------|----------------|----------------|----------------|
D|----------------|----------------|----------------|----------------|
A|3---------------|2---------------|----------------|----------------|
E|----------------|----------------|4------1---1-1-2|----------3-----|
                                                                       X1
G|----------------|----------------|----------------|----------------|
D|----------------|----------------|----------------|----------------|
A|3---------------|2---------------|----------------|----------------|
E|----------------|----------------|4---------------|1-------3-------|
(furter in the song the chorus repeats,but then repeat only the second part)

the rest of the song, is the same as above ;)
(don't know if it's 100% accurate)
have fun
Suggest correction
Give kudos to tab author, rate the tab!
1 2 3 4 5
comments
print report bad tab
guest
You may want to rate the tab now too:
select rating
Wanna post a correction for this tab? Suggest correction