Oops, an error
Loading. Please wait.

Bestrafe Mich Tab

version 1
version 1

Whole song

Interactive

17,217 views 24 this week
no commentswrite comment
1 2 3 4 5
x 4
add to favorites
launch autoscroll
font size
0
reset
how to read this tab
guitar tuner
Autoscroll
slow
fast
+/-
esc
set tempo
stop
Help us to improve Ultimate-Guitar.com Take our survey!
×
Author
Played on Drop D

[Intro]
e|------------------------------------------|
B|------------------------------------------|
G|------------------------------------------|
D|--9--9--9-------10----------2-------10--9-|
A|--9--9--9-------10----------2-------10--9-|
E|--9--9--9--9-9--10--10-10---2--2-2--10--9-|
PM          . .      .  .       . .

[Main Riff]
e|---------------------------------------------------------------------------|
B|---------------------------------------------------------------------------|
G|---------------------------------------------------------------------------|
D|---------------------------------------------------------------------------|
A|-3-2-2-2-2-3-2-2-2-2-3-2-2-2-5/7-2-2-2-3-2-2-2-3-2-2-2-3-2-2-2-5-5-2-2-5-5-|
E|-3-2-2-2-2-3-2-2-2-2-3-2-2-2-5/7-2-2-2-3-2-2-2-3-2-2-2-3-2-2-2-5-5-2-2-5-5-|
PM. . . . . . . . . . . . . .     . . . . . . . . . . . . . . . . . . . . .

(Only first time! after the intro.)
e|----------------------------|
B|----------------------------|
G|----------------------------|
D|-2-2-2-2-2-2--------------2-|
A|-2-2-2-2-2-2--5-5-2-2-5-5-2-|
E|-2-2-2-2-2-2--5-5-2-2-5-5-2-|
PM             . . . . . .

[Verse Riff]
e|----------------------------------|
B|----------------------------------|
G|----------------------------------| (x4)
D|----------------------------------|
A|-2-2-2-2-2-2-2-2-2-2-2-2-2-2-1-0--|
E|-2-2-2-2-2-2-2-2-2-2-2-2-2-2-1-0--|
PM. . . . . . . . . . . . . . . .

[End Riff]
e|-------------------------------------------------------|
B|-------------------------------------------------------|
G|-------------------------------------------------------|
D|-9-9-9--9--9---9-9-9--9--9---9-9-9--9--9---9-9-9--9--9-|
A|-9-9-9--9--9---9-9-9--9--9---9-9-9--9--9---9-9-9--9--9-|
E|-9-9-9--9--9---9-9-9--9--9---9-9-9--9--9---9-9-9--9--9-|
PM. . .  .  .   . . .  .  .   . . .  .  .   . . .  .  .

e|-----------------------------------------------------------------|
B|-----------------------------------------------------------------|
G|-----------------------------------------------------------------|
D|-10-10-10--10--10---10-10-10--10--10---2-2-2--2--2---2-2-2--2--2-|
A|-10-10-10--10--10---10-10-10--10--10---2-2-2--2--2---2-2-2--2--2-|
E|-10-10-10--10--10---10-10-10--10--10---2-2-2--2--2---2-2-2--2--2-|
PM.  . .   .   .    .   .  .   .  .    . . .  .  .   . . .  .  .

e|----------------------------------------------------------------|
B|----------------------------------------------------------------|
G|----------------------------------------------------------------| (x2)
D|-10-10-10--10--10---10-10-10--10--10---9-9-9--9--9---9-9-9--9--9|
A|-10-10-10--10--10---10-10-10--10--10---9-9-9--9--9---9-9-9--9--9|
E|-10-10-10--10--10---10-10-10--10--10---9-9-9--9--9---9-9-9--9--9|
PM. .  .   .   .    .   .  .   .  .    . . .  .  .   . . .  .  .

(Last Really End Riff)
e|-----------------------------|
B|-----------------------------|
G|-----------------------------|
D|---------------------------2-|
A|-2-2-2-2--5-5-2-2-5-5-2-5--2-|
E|-2-2-2-2--5-5-2-2-5-5-2-5--2-|
PM. . . .  . . . . . . . .



************************************

| PM  Palm mute
| /   Slide up

************************************
Suggest correction
comments
print report bad tab
guest
You may want to rate the tab now too:
select rating
Wanna post a correction for this tab? Suggest correction