Oops, an error
Loading. Please wait.

Du Hast Tab

version 1
version 1

Whole song

369,455 views 726 this week
49 commentsread comments
1 2 3 4 5
accurate
x 31
add to favorites
launch autoscroll
font size
0
reset
how to read this tab
guitar tuner
Autoscroll
slow
fast
+/-
esc
set tempo
stop
Help us to improve Ultimate-Guitar.com Take our survey!
×
Author
[Intro]

e|----------------------------------------------------------------------------------------------------|
B|----------------------------------------------------------------------------------------------------|
G|----------------------------------------------------------------------------------------------------|
D|----------------------------------------------------------------------------------------------------|
A|-7-\-5---2---2- -222--22---7-\-5----2---2--222--2222--7-\-5--2--2--222---22--7-\-5--2--2--222--2222-|
E|-5-\-3---0---0---000--00---5-\-3----0---0--000--0000--5-\-3--0--0--000---00--5-\-3--0--0--000--0000-|

e|--------------------------------------------------------------------------------|
B|--------------------------------------------------------------------------------|
G|--------------------------------------------------------------------------------|
D|--------------------------------------------------------------------------------|
A|--7-\-5--2--2--222--22--7-\-5--2--2--222--2222--5-/-7--77--777--7777------------|
E|--5-\-3--0--0--000--00--5-\-3--0--0--000--0000--3-/-5--55--555--5555------------|


[Verse 1]

Du     Du haust      Du haust meash        Du     Du haust      Du haust meash        
Du     Du haust      Du haust meash           Du     Du haust      Du haust meash             


[Chorus] 

e|----------------------------------------------------------------------------------------------------|
B|----------------------------------------------------------------------------------------------------|
G|----------------------------------------------------------------------------------------------------|
D|----------------------------------------------------------------------------------------------------|
A|-7-\-5---2---2---222--22---7-\-5----2---2--222--2222--7-\-5--2--2--222---22--7-\-5--2--2--222--2222-|
E|-5-\-3---0---0---000--00---5-\-3----0---0--000--0000--5-\-3--0--0--000---00--5-\-3--0--0--000--0000-|
                        
e|-------------------------------------------------------------------------|
B|-------------------------------------------------------------------------|
G|-------------------------------------------------------------------------|
D|-------------------------------------------------------------------------|
A|--7-\-5--2--2--222--22--7-\-5--2--2--222--2222--5-/-7--77--777--7777-----|
E|--5-\-3--0--0--000--00--5-\-3--0--0--000--0000--3-/-5--55--555--5555-----|


[Verse 2]

Du     Du haust      Du haust meash     Du haust meash! Du haust meash gufragt, 

Du haust meash gufragt, Du haust meash gufragt und ich ahm  nishck|gey|zshaagt          


[Chorus]

e|--------------------------------------------------------------------------------------------------|
B|--------------------------------------------------------------------------------------------------|
G|--------------------------------------------------------------------------------------------------|
D|--------------------------------------------------------------------------------------------------|
A|--7-\-5---2---2---222--22---7-\-5----2---2--222--2222--5-/-7--77--777--7777--5-/-7--77--777--7777-|
E|--5-\-3---0---0---000--00---5-\-3----0---0--000--0000--3-/-5--55--555--5555--3-/-5--55--555--5555-|
Wville  sue        bistere      tota      shielenn,   tlroy  ere zien   fuere    hallen    tahgen

e|------------------------------------------------------------|
B|------------------------------------------------------------|
G|------------------------------------------------------------|
D|------------------------------------------------------------|
A|--7-/-10---1010--101010-10-10---12-\-9---99---999---9999----|
E|--5-/--8---8-8----8-8-8--8--8---10-\-7---77---777---7777----|

e|----------------------------------------------------------------------------------------------------|
B|----------------------------------------------------------------------------------------------------|
G|----------------------------------------------------------------------------------------------------|
D|----------------------------------------------------------------------------------------------------|
A|-7-\-5---2---2---222--22---7-\-5----2---2--222--2222--7-\-5--2--2--222---22--7-\-5--2--2--222--2222-|
E|-5-\-3---0---0---000--00---5-\-3----0---0--000--0000--5-\-3--0--0--000---00--5-\-3--0--0--000--0000-|
        nie!                     Wville      sue        bistere         tota        shielenn,   

e|--------------------------------------------------------------------------------|
B|--------------------------------------------------------------------------------|
G|--------------------------------------------------------------------------------|
D|--------------------------------------------------------------------------------|
A|--5-/-7--77--777--7777--5-/-7--77---777--7777---7-/-10--1010---101010-10-10-----|
E|--3-/-5--55--555--5555--3-/-5--55---555--5555---5-/--8----8-8-----8--8-8---8--8-|
         tlroy  ere zien   fuere          hallen        tahgen
                 
e|-----------------------------------------------------------------------------|
B|-----------------------------------------------------------------------------|
G|-----------------------------------------------------------------------------|
D|-----------------------------------------------------------------------------|
A|---12-\-9---99---999---9999----7-\-5--2--2--222--22---7-\-5--2--2--222--2222-|
E|---10-\-7---77---777---7777----5-\-3--0--0--000--00---5-\-3--0--0--000--0000-|
                 nie!                                        nie!

e|-------------------------------------------------------------------------------------------------|
B|-------------------------------------------------------------------------------------------------|
G|-------------------------------------------------------------------------------------------------|
D|-------------------------------------------------------------------------------------------------|
A|-7-\-5---2---2---222--22---7-\-5----2---2--222--2222--5-/-7--77--777--7777--5-/-7--77--777--7777-|
E|-5-\-3---0---0---000--00---5-\-3----0---0--000--0000--3-/-5--55--555--5555--3-/-5--55--555--5555-|

e|----------------------------------------------------------------------------------|
B|----------------------------------------------------------------------------------|
G|----------------------------------------------------------------------------------|
D|----------------------------------------------------------------------------------|
A|--7-/-10---1010--101010-1010--12--\-9---99---999---9999--7-\-5--2--2--222--22-----|
E|--5-/--8-----8-8----8-8--8---8-8---10-\-7---77---777---7777--5-\-3--0--0--000--00-|

e|----------------------------------------------------------------------------------|
B|----------------------------------------------------------------------------------|
G|----------------------------------------------------------------------------------|
D|----------------------------------------------------------------------------------|
A|--7-\-5----2---2---222--2222--STOP------------------------------------------------|
E|--5-\-3----0---0---000--0000--STOP------------------------------------------------|


[Verse 3]

Du    Du haust   Du haust meash    Du   Du haust   Du haust meash 


[Chorus 3]

e|-------------------------------------------------------------------------------------------------|
B|-------------------------------------------------------------------------------------------------|
G|-------------------------------------------------------------------------------------------------|
D|-------------------------------------------------------------------------------------------------|
A|-7-\-5---2---2---222--22---7-\-5----2---2--222--2222--5-/-7--77--777--7777--5-/-7--77--777--7777-|
E|-5-\-3---0---0---000--00---5-\-3----0---0--000--0000--3-/-5--55--555--5555--3-/-5--55--555--5555-|
         Du                            Du haust     Du haust meash            Du haust meash! 

e|----------------------------------------------------------------------------------|
B|----------------------------------------------------------------------------------|
G|----------------------------------------------------------------------------------|
D|----------------------------------------------------------------------------------|
A|--7-/-10---1010--101010-1010--12--\-9---99---999---9999--7-\-5--2--2--222--22-----|
E|--5-/--8-----8-8----8-8--8---8-8---10-\-7---77---777---7777--5-\-3--0--0--000--00-|
    Du haust meash gufragt           Du haust meash gufragt     Du haust meash gufragt und ich


e|-----------------------------------------------------------------------------|
B|-----------------------------------------------------------------------------|
G|-----------------------------------------------------------------------------|
D|-----------------------------------------------------------------------------|
A|--7-\-5----2---2--222--2222--7-\-5--2--2--222---22--7-\-5--2--2--222--2222---|
E|--5-\-3----0---0--000--0000--5-\-3--0--0--000---00--5-\-3--0--0--000--0000---|
           ahm  nishck|gey|zshaagt

e|-----------------------------------------------------------------------------------|
B|-----------------------------------------------------------------------------------|
G|-----------------------------------------------------------------------------------|
D|-----------------------------------------------------------------------------------|
A|--5-/-7--77--777--7777--5-/-7--77---777--7777---7-/-10--1010---101010-10-10--------|
E|--3-/-5--55--555--5555--3-/-5--55---555--5555---5-/--8----8-8-----8--8-8---8--8----|

e|-------------------------------------------------------------------------------------------|
B|-------------------------------------------------------------------------------------------|
G|-------------------------------------------------------------------------------------------|
D|-------------------------------------------------------------------------------------------|
A|---12--\-9---99---999---9999--7------------------------------------------------------------|
E|----10-\-7---77---777---7777--5------------------------------------------------------------|

e|--------------------------------------------------------------------------------------------------|
B|--------------------------------------------------------------------------------------------------|
G|--------------------------------------------------------------------------------------------------|
D|--------------------------------------------------------------------------------------------------|
A|--7-\-5---2---2---222--22---7-\-5----2---2--222--2222--5-/-7--77--777--7777--5-/-7--77--777--7777-|
E|--5-\-3---0---0---000--00---5-\-3----0---0--000--0000--3-/-5--55--555--5555--3-/-5--55--555--5555-|
  Wville        sue    bistere  tota      shielenn,   tlroy  ere zien   fuere         hallen    tahgen

e|-------------------------------------------------------------|
B|-------------------------------------------------------------|
G|-------------------------------------------------------------|
D|-------------------------------------------------------------|
A|--7-/-10---1010--101010-10-10---12-\-9---99---999---9999-----|
E|--5-/--8-----8-8----8-8--8---8--8---10-\-7---77---777---7777-|
                                              nie!
 
e|-----------------------------------------------------------------------------------------------------|
B|-----------------------------------------------------------------------------------------------------|
G|-----------------------------------------------------------------------------------------------------|
D|-----------------------------------------------------------------------------------------------------|
A|--7-\-5---2---2---222--22---7-\-5----2---2--222--2222--7-\-5--2--2--222---22--7-\-5--2--2--222--2222-|
E|--5-\-3---0---0---000--00---5-\-3----0---0--000--0000--5-\-3--0--0--000---00--5-\-3--0--0--000--0000-|
nie!                     Wville      sue        bistum        totadere shi dazee   

e|--------------------------------------------------------------------------------|
B|--------------------------------------------------------------------------------|
G|--------------------------------------------------------------------------------|
D|--------------------------------------------------------------------------------|
A|--5-/-7--77--777--7777--5-/-7--77---777--7777---7-/-10--1010---101010-10-10-----|
E|--3-/-5--55--555--5555--3-/-5--55---555--5555---5-/--8----8-8-----8--8-8---8--8-|
        eeleebuanow   khhenn      schletchen    tahgen

e|-----------------------------------------------------------------------------|
B|-----------------------------------------------------------------------------|
G|-----------------------------------------------------------------------------|
D|-----------------------------------------------------------------------------|
A|---12-\-9---99---999---9999----7-\-5--2--2--222--22---7-\-5--2--2--222--2222-|
E|---10-\-7---77---777---7777----5-\-3--0--0--000--00---5-\-3--0--0--000--0000-|
                  nie!                                        nie!
                                                 
e|--------------------------------------------------------------------------------------------------|
B|--------------------------------------------------------------------------------------------------|
G|--------------------------------------------------------------------------------------------------|
D|--------------------------------------------------------------------------------------------------|
A|--7-\-5---2---2---222--22---7-\-5----2---2--222--2222--5-/-7--77--777--7777--5-/-7--77--777--7777-|
E|--5-\-3---0---0---000--00---5-\-3----0---0--000--0000--3-/-5--55--555--5555--3-/-5--55--555--5555-|   
Wville   sue    bistere      tota      shielent      roy    ere       kkhhhhiiiiiiiiiiiiiiieeeeeeenn

e|----------------------------------------------------------------|
B|----------------------------------------------------------------|
G|----------------------------------------------------------------|
D|----------------------------------------------------------------|
A|--7-/-10---1010--101010-10-10---12-\-9---99---999---9999--------|
E|--5-/--8-----8-8----8-8--8---8--8---10-\-7---77---777---7777----|
                                                     nie!
                                   
e|--------------------------------------------------------------------------------------------------|
B|--------------------------------------------------------------------------------------------------|
G|--------------------------------------------------------------------------------------------------|
D|--------------------------------------------------------------------------------------------------|
A|--7-\-5---2---2---222--22---7-\-5----2---2--222--2222--5-/-7--77--777--7777--5-/-7--77--777--7777-|
E|--5-\-3---0---0---000--00---5-\-3----0---0--000--0000--3-/-5--55--555--5555--3-/-5--55--555--5555-|
  


************************************

| /  Slide up
| \  Slide down

************************************
Suggest correction
comments
print report bad tab
49 comments total. Showing first comments.
+5 reply
punky223 10 wrote on January 12 2003, 12:00 am

lol, you don't actually speak much German, do you?

+1 reply
Carcass 10 wrote on February 14 2003, 12:00 am

ROFL!!!
nice german dude.

tab aint bad tho ;)

+1 reply
Herz_Aus_Gold 30 wrote on December 17 2003, 12:00 am

u've got the right notes, just not the right rhythm for the 0
2

its sumthin like 5/3 0 0 00 00 5/3 0 0 0 00 0 0000
7 5 2 2 22 22 7 5 2 2 2 22 2 2222

oh ya, and its du hast as in you have, not du hasst as in you hate

guest
You may want to rate the tab now too:
select rating
Please do not post tabs as comments. Select "correction" instead!