Oops, an error
Loading. Please wait.

Du Riechst So Gut Tab

version 2
version 2

Whole song

Interactive

43,575 views 129 this week
7 commentsread comments
1 2 3 4 5
x 11
add to favorites
launch autoscroll
font size
0
reset
how to read this tab
guitar tuner
backing track
0:00
0:00
Autoscroll
slow
fast
+/-
esc
set tempo
stop
Author
e|------------------|------------------|------------------|-------------------|
B|------------------|------------------|------------------|-------------------|
G|------------------|------------------|------------------|-----------------2~|
D|------------------|------------------|------------------|-------------------|
A|------------------|------------------|------------------|-------------------|
E|------------------|------------------|------------------|-------------------|

e|----------------------------|----------------------------|----------------------------|
B|----------------------------|----------------------------|----------------------------|
G|----------------------------|--------------------------2~|----------------------------|
D|----------------------------|----------------------------|----------------------------|
A|---0-1--0-1--0-1--1--0-1--0-|---0-1--0-1--0-1--1--0-1----|---0-1--0-1--0-1--1--0-1--0-|
E|---0-1--0-1--0-1--1--0-1--0-|---0-1--0-1--0-1--1--0-1----|---0-1--0-1--0-1--1--0-1--0-|

e|----------------------------|----------------------------|----------------------------|
B|----------------------------|----------------------------|----------------------------|
G|--------------------------2~|----------------------------|--------------------------2~|
D|----------------------------|----------------------------|----------------------------|
A|---0-1--0-1--0-1--1--0-1----|---0-1--0-1--0-1--1--0-1--0-|---0-1--0-1--0-1--1--0-1----|
E|---0-1--0-1--0-1--1--0-1----|---0-1--0-1--0-1--1--0-1--0-|---0-1--0-1--0-1--1--0-1----|

e|----------------------------|----------------------------|----------|
B|----------------------------|----------------------------|----------|
G|----------------------------|----------------------------|----------|
D|----------------------------|----------------------------|----------|
A|---0-1--0-1--0-1--1--0-1--0-|---0-1--0-1--0-1--1--0-1--0-|----------|
E|---0-1--0-1--0-1--1--0-1--0-|---0-1--0-1--0-1--1--0-1--0-|----------|

e|----------------------------|----------------------------|----------------------------|
B|----------------------------|----------------------------|----------------------------|
G|----------------------------|--------------------------2~|----------------------------|
D|----------------------------|----------------------------|----------------------------|
A|--0--0--0-1--0-1--1--0-1--0-|---0-1--0-1--0-1--1--0-1----|---0-1--0-1--0-1--1--0-1--0-|
E|--0--0--0-1--0-1--1--0-1--0-|---0-1--0-1--0-1--1--0-1----|---0-1--0-1--0-1--1--0-1--0-|

e|----------------------------|----------------------------|----------------------------|
B|----------------------------|----------------------------|----------------------------|
G|--------------------------2~|----------------------------|--------------------------2~|
D|----------------------------|----------------------------|----------------------------|
A|---0-1--0-1--0-1--1--0-1----|---0-1--0-1--0-1--1--0-1--0-|---0-1--0-1--0-1--1--0-1----|
E|---0-1--0-1--0-1--1--0-1----|---0-1--0-1--0-1--1--0-1--0-|---0-1--0-1--0-1--1--0-1----|

e|----------------------------|----------------------------|------------------|
B|----------------------------|----------------------------|------------------|
G|----------------------------|----------------------------|------------------|
D|----------------------------|----------------------------|------------------|
A|---0-1--0-1--0-1--1--0-1--0-|---0-1--0-1--0-1--1--0-1--0-|------------------|
E|---0-1--0-1--0-1--1--0-1--0-|---0-1--0-1--0-1--1--0-1--0-|------------------|

e|------------------|------------------|------------------|------------------|
B|------------------|------------------|------------------|------------------|
G|------------------|------------------|------------------|------------------|
D|------------------|------------------|------------------|------------------|
A|------------------|------------------|------------------|------------------|
E|------------------|------------------|------------------|------------------|

e|------------------|------------------|------------------|-------------------|
B|------------------|------------------|------------------|-------------------|
G|------------------|------------------|------------------|-----------------2~|
D|------------------|------------------|------------------|-------------------|
A|------------------|------------------|------------------|-------------------|
E|------------------|------------------|------------------|-------------------|

e|----------------------------|----------------------------|----------------------------|
B|----------------------------|----------------------------|----------------------------|
G|----------------------------|--------------------------2~|----------------------------|
D|----------------------------|----------------------------|----------------------------|
A|---0-1--0-1--0-1--1--0-1--0-|---0-1--0-1--0-1--1--0-1----|---0-1--0-1--0-1--1--0-1--0-|
E|---0-1--0-1--0-1--1--0-1--0-|---0-1--0-1--0-1--1--0-1----|---0-1--0-1--0-1--1--0-1--0-|

e|----------------------------|----------------------------|----------------------------|
B|----------------------------|----------------------------|----------------------------|
G|--------------------------2~|----------------------------|--------------------------2~|
D|----------------------------|----------------------------|----------------------------|
A|---0-1--0-1--0-1--1--0-1----|---0-1--0-1--0-1--1--0-1--0-|---0-1--0-1--0-1--1--0-1----|
E|---0-1--0-1--0-1--1--0-1----|---0-1--0-1--0-1--1--0-1--0-|---0-1--0-1--0-1--1--0-1----|

e|----------------------------|----------------------------|------------------|
B|----------------------------|----------------------------|------------------|
G|----------------------------|----------------------------|------------------|
D|----------------------------|----------------------------|------------------|
A|---0-1--0-1--0-1--1--0-1--0-|---0-1--0-1--0-1--1--0-1--0-|------------------|
E|---0-1--0-1--0-1--1--0-1--0-|---0-1--0-1--0-1--1--0-1--0-|------------------|

e|------------------|------------------|------------------|------------------|
B|------------------|------------------|------------------|------------------|
G|------------------|------------------|------------------|------------------|
D|------------------|------------------|------------------|------------------|
A|------------------|------------------|------------------|------------------|
E|------------------|------------------|------------------|------------------|

e|------------------|------------------|------------------|------------------|
B|------------------|------------------|------------------|------------------|
G|------------------|------------------|------------------|------------------|
D|------------------|------------------|------------------|------------------|
A|------------------|------------------|------------------|------------------|
E|------------------|------------------|------------------|------------------|

e|------------------|------------------|--------------------|-----------------------|
B|------------------|------------------|--------------------|-----------------------|
G|------------------|------------------|--------------------|-----------------------|
D|------------------|------------------|--------------------|-----------------------|
A|------------------|------------------|--5--------8--------|--0----------0--0-0--0-|
E|------------------|------------------|--5--------8--------|--0----------0--0-0--0-|

e|--------------------|----------------------|--------------------|-------------------|
B|--------------------|----------------------|--------------------|-------------------|
G|--------------------|----------------------|--------------------|-------------------|
D|--------------------|----------------------|--------------------|-------------------|
A|--5--------8--------|--0----------0---0--0-|--5--------8--------|--0----------------|
E|--5--------8--------|--0----------0---0--0-|--5--------8--------|--0----------------|

e|--------------------|---------------------|--------------------|---------------------|
B|--------------------|---------------------|--------------------|---------------------|
G|--------------------|---------------------|--------------------|---------------------|
D|--5--------3--------|--2------------------|--------------------|---------------------|
A|--3--------1--------|--0--------------x-x-|--5--------7--------|--0--------------x-x-|
E|--------------------|-----------------x-x-|--5--------7--------|--0--------------x-x-|

e|--------------------|---------------------|--------------------|-------------------|
B|--------------------|---------------------|--------------------|-------------------|
G|--------------------|---------------------|--------------------|-------------------|
D|--------------------|---------------------|--------------------|-------------------|
A|--5--------7--------|--0--------------x-x-|--5--------7--------|--0----------------|
E|--5--------7--------|--0--------------x-x-|--5--------7--------|--0----------------|

e|--------------------|-------------------|------------------|-------------------|
B|--------------------|-------------------|------------------|-------------------|
G|--------------------|-------------------|------------------|-----------------2-|
D|--5--------3--------|--2----------------|------------------|-------------------|
A|--3--------1--------|--0----------------|------------------|-------------------|
E|--------------------|-------------------|------------------|-------------------|

e|----------------------------|----------------------------|----------------------------|
B|----------------------------|----------------------------|----------------------------|
G|----------------------------|--------------------------2~|----------------------------|
D|----------------------------|----------------------------|----------------------------|
A|---0-1--0-1--0-1--1--0-1--0-|---0-1--0-1--0-1--1--0-1----|---0-1--0-1--0-1--1--0-1--0-|
E|---0-1--0-1--0-1--1--0-1--0-|---0-1--0-1--0-1--1--0-1----|---0-1--0-1--0-1--1--0-1--0-|

e|----------------------------|----------------------------|----------------------------|
B|----------------------------|----------------------------|----------------------------|
G|--------------------------2~|----------------------------|--------------------------2~|
D|----------------------------|----------------------------|----------------------------|
A|---0-1--0-1--0-1--1--0-1----|---0-1--0-1--0-1--1--0-1--0-|---0-1--0-1--0-1--1--0-1----|
E|---0-1--0-1--0-1--1--0-1----|---0-1--0-1--0-1--1--0-1--0-|---0-1--0-1--0-1--1--0-1----|

e|----------------------------|----------------------------|------------------|
B|----------------------------|----------------------------|------------------|
G|----------------------------|----------------------------|------------------|
D|----------------------------|----------------------------|------------------|
A|---0-1--0-1--0-1--1--0-1--0-|---0-1--0-1--0-1--1--0-1--0-|------------------|
E|---0-1--0-1--0-1--1--0-1--0-|---0-1--0-1--0-1--1--0-1--0-|------------------|

e|------------------|------------------|------------------|------------------|
B|------------------|------------------|------------------|------------------|
G|------------------|------------------|------------------|------------------|
D|------------------|------------------|------------------|------------------|
A|------------------|------------------|------------------|------------------|
E|------------------|------------------|------------------|------------------|

e|------------------|------------------|------------------|------------------|
B|------------------|------------------|------------------|------------------|
G|------------------|------------------|------------------|------------------|
D|------------------|------------------|------------------|------------------|
A|------------------|------------------|------------------|------------------|
E|------------------|------------------|------------------|------------------|

e|------------------|------------------|--------------------|-----------------------|
B|------------------|------------------|--------------------|-----------------------|
G|------------------|------------------|--------------------|-----------------------|
D|------------------|------------------|--------------------|-----------------------|
A|------------------|------------------|--5--------8--------|--0----------0--0-0--0-|
E|------------------|------------------|--5--------8--------|--0----------0--0-0--0-|

e|--------------------|----------------------|--------------------|-------------------|
B|--------------------|----------------------|--------------------|-------------------|
G|--------------------|----------------------|--------------------|-------------------|
D|--------------------|----------------------|--------------------|-------------------|
A|--5--------8--------|--0----------0---0--0-|--5--------8--------|--0----------------|
E|--5--------8--------|--0----------0---0--0-|--5--------8--------|--0----------------|

e|--------------------|---------------------|--------------------|---------------------|
B|--------------------|---------------------|--------------------|---------------------|
G|--------------------|---------------------|--------------------|---------------------|
D|--5--------3--------|--2------------------|--------------------|---------------------|
A|--3--------1--------|--0--------------x-x-|--5--------7--------|--0--------------x-x-|
E|--------------------|-----------------x-x-|--5--------7--------|--0--------------x-x-|

e|--------------------|---------------------|--------------------|-------------------|
B|--------------------|---------------------|--------------------|-------------------|
G|--------------------|---------------------|--------------------|-------------------|
D|--------------------|---------------------|--------------------|-------------------|
A|--5--------7--------|--0--------------x-x-|--5--------7--------|--0----------------|
E|--5--------7--------|--0--------------x-x-|--5--------7--------|--0----------------|

e|--------------------|-------------------|------------------------------------------|
B|--------------------|-------------------|------------------------------------------|
G|--------------------|-------------------|--12h0h12h0h12h0h12h0h11h0h11h0h11h0h12h0-|
D|--5--------3--------|--2----------------|------------------------------------------|
A|--3--------1--------|--0----------------|------------------------------------------|
E|--------------------|-------------------|------------------------------------------|

e|------------------------------------------|------------------------------------------|
B|------------------------------------------|------------------------------------------|
G|------------------------------------------|--12h0h12h0h12h0h12h0h11h0h11h0h11h0h12h0-|
D|--12h0h12h0h12h0h12h0h14h0h12h0h14h0h12h0-|------------------------------------------|
A|------------------------------------------|------------------------------------------|
E|------------------------------------------|------------------------------------------|

e|------------------------------------------|------------------------------------------|
B|------------------------------------------|------------------------------------------|
G|------------------------------------------|--12h0h12h0h12h0h12h0h11h0h11h0h11h0h12h0-|
D|--12h0h12h0h12h0h12h0h14h0h12h0h14h0h12h0-|------------------------------------------|
A|------------------------------------------|------------------------------------------|
E|------------------------------------------|------------------------------------------|

e|------------------------------------------|------------------------------------------|
B|------------------------------------------|------------------------------------------|
G|------------------------------------------|--12h0h12h0h12h0h12h0h11h0h11h0h11h0h12h0-|
D|--12h0h12h0h12h0h12h0h14h0h12h0h14h0h12h0-|------------------------------------------|
A|------------------------------------------|------------------------------------------|
E|------------------------------------------|------------------------------------------|

e|------------------------------------------|--------------------|-----------------------|
B|------------------------------------------|--------------------|-----------------------|
G|------------------------------------------|--------------------|-----------------------|
D|--12h0h12h0h12h0h12h0h14h0h12h0h14h0h12h0-|--------------------|-----------------------|
A|------------------------------------------|--5--------8--------|--0----------0--0-0--0-|
E|------------------------------------------|--5--------8--------|--0----------0--0-0--0-|

e|--------------------|----------------------|--------------------|-------------------|
B|--------------------|----------------------|--------------------|-------------------|
G|--------------------|----------------------|--------------------|-------------------|
D|--------------------|----------------------|--------------------|-------------------|
A|--5--------8--------|--0----------0---0--0-|--5--------8--------|--0----------------|
E|--5--------8--------|--0----------0---0--0-|--5--------8--------|--0----------------|

e|--------------------|---------------------|--------------------|---------------------|
B|--------------------|---------------------|--------------------|---------------------|
G|--------------------|---------------------|--------------------|---------------------|
D|--5--------3--------|--2------------------|--------------------|---------------------|
A|--3--------1--------|--0--------------x-x-|--5--------7--------|--0--------------x-x-|
E|--------------------|-----------------x-x-|--5--------7--------|--0--------------x-x-|

e|--------------------|---------------------|--------------------|-------------------|
B|--------------------|---------------------|--------------------|-------------------|
G|--------------------|---------------------|--------------------|-------------------|
D|--------------------|---------------------|--------------------|-------------------|
A|--5--------7--------|--0--------------x-x-|--5--------7--------|--0----------------|
E|--5--------7--------|--0--------------x-x-|--5--------7--------|--0----------------|

e|--------------------|-------------------|--------------------|---------------------|
B|--------------------|-------------------|--------------------|---------------------|
G|--------------------|-------------------|--------------------|---------------------|
D|--5--------3--------|--2----------------|--------------------|---------------------|
A|--3--------1--------|--0----------------|--5--------7--------|--0--------------x-x-|
E|--------------------|-------------------|--5--------7--------|--0--------------x-x-|

e|--------------------|---------------------|--------------------|-------------------|
B|--------------------|---------------------|--------------------|-------------------|
G|--------------------|---------------------|--------------------|-------------------|
D|--------------------|---------------------|--------------------|-------------------|
A|--5--------7--------|--0--------------x-x-|--5--------7--------|--0----------------|
E|--5--------7--------|--0--------------x-x-|--5--------7--------|--0----------------|

e|--------------------|-------------------|-------------------|
B|--------------------|-------------------|-------------------|
G|--------------------|-------------------|-------------------|
D|--5--------3--------|--2----------------|-------------------|
A|--3--------1--------|--0----------------|--5----------------|
E|--------------------|-------------------|--5----------------|

************************************

| ~  Vibrato
| x  Dead note
| h  Hammer-on

************************************
Suggest correction
comments
print report bad tab
7 comments total. Showing first comments.
0 reply
rammsteinrob 30 Aug 17, 2007 06:35 AM

Very nice dude! Everything sounds good to me and I'm not sure bout the solo though? It sounds right but live they play it on the d string going from the 16th (Ithink) to 15th with hamers and pulls then to 12th and 14th or whatever but sounds excatly the same so I like it :)

0 reply
Ansatsusha X 30 Oct 25, 2008 01:23 PM

What is the tuning standard or drop d?

0 reply
Conor_man11 30 Apr 08, 2009 09:12 PM

its Drop D if you look at the top first bar you can see. Thanks for uploading.

guest
You may want to rate the tab now too:
select rating
Wanna post a correction for this tab? Suggest correction