Oops, an error
Loading. Please wait.

Ein Lied tab

version 1
version 1

Whole song

Interactive

37,363 views 48 this week
6 commentsread comments
1 2 3 4 5
x 25
add to favorites
×
Save as Personal and add changes to this tab that will be seen only by you. Learn more ›
×
You can save this tab as Personal to edit and correct it or add notes. All changes will be seen only by you. Learn more »
launch autoscroll
font size
0
reset
how to read this tab
guitar tuner
edit
Autoscroll
slow
fast
+/-
esc
set tempo
stop
Tuning: Dropped D

(Right, this is my first tab so be nice ;) It might not sound right when you first
play it but if you listen closely to the song you'll hear it's right (I think).)

[Main riff]
(Played most of the song)
e|------------------------------------|------------------------------------|
B|------------------------------------|------------------------------------|
G|------------------------------------|------------------------------------|
D|-----3--------3--------2--------2---|-----5--------5--------2--------2---|
A|---0---0----0---0----3---3----3---3-|---2---2----2---2----2---2----2---2-|
D|-0--------0--------3--------3-------|-2--------2--------2--------2-------|

(Then, after you've played the main thing thirteen times, they play this once)
e|--------------------------------------|------------------------------------|
B|--------------------------------------|------------------------------------|
G|--------------------------------------|-----4--------4--------4--------4---|
D|-----3--------3--------10--------10---|------------------------------------|
A|---3---3----3---3----7----7----7----7-|---2---2----2---2----2---2----2---2-|
D|-3--------3--------7---------7--------|-2--------2--------2--------2-------|

e|------------------------------------|------------------------------------|
B|------------------------------------|------------------------------------|
G|------------------------------------|------------------------------------|
D|-----3--------3--------7--------7---|-----2--------2--------2--------2---|
A|---3---3----3---3----7---7----7---7-|---2---2----2---2----2---2----2---2-|
D|-3--------3--------7--------7-------|-2--------2--------2--------2-------|

(Then it stops suddenly and you hear nothing but the bass guitar. I tried to put the 
of the played notes in the tab, the 2's and 0's are about 4 seconds, the 3's and 7's 2 sec)
e|--------------------------------------------------------------------------|
B|--------------------------------------------------------------------------|
G|--------------------------------------------------------------------------|
D|--------------------------------------------------------------------------|
A|--------------------------------------------------------------------------|
D|--2-------5-0--------2--------3----7----2--------3----7----2-------0------|

(After this part the main riff is played four more times before another bass part starts. 
of the played notes are about two seconds)
e|--------------------------------------------------------------------------|
B|--------------------------------------------------------------------------|
G|--------------------------------------------------------------------------|
D|--------------------------------------------------------------------------|
A|--------------------------------------------------------------------------|
D|------0-------3-------2-------2-------0-------3-------2-------2-----------|

            
            
Suggest correction
Creating personal tab
Creating personal tab
You can edit any tab online and save it as your Personal.

You can edit, replace or remove any tab part or add personal notes – all changes will be seen only by you.

Personal tabs can be accessed anytime from any device, even offline.
Learn more »
comments
print report bad tab
6 comments total. Showing first comments.
+3 reply
d_man_dude 21 Nov 30, 2006 05:25 PM

sehr gut

0 reply
Engel1 234 Jan 11, 2008 04:44 AM

Not Bad

0 reply
stich96 76 Apr 21, 2008 07:07 PM

very good i like it

guest
You may want to rate the tab now too:
select rating
Wanna post a correction for this tab? Suggest correction