Oops, an error
Loading. Please wait.

Ein Lied bass

version 2
version 2

Whole song

Interactive

872 views 1 this week
no commentswrite comment
1 2 3 4 5
3 more votes to show rating
add to favorites
×
Save as Personal and add changes to this tab that will be seen only by you. Learn more ›
×
You can save this tab as Personal to edit and correct it or add notes. All changes will be seen only by you. Learn more »
launch autoscroll
font size
0
reset
guitar tuner
edit
Autoscroll
slow
fast
+/-
esc
set tempo
stop
Author
Difficulty
Ein Leid 5 String

Original Tab : Bee-Ay
5 String Tab : MaggoTEMan

Note: i used the Ein Leid bass tab written by Bee-Ay. i used the same notes but with a 
tune for 5-Sting bassists.

BEADG

Verse and Chorus:
G|-----------------------------|-----------------------------|
D|*-------15-------------15----|---------14-------------14---|
A|*----12----12-------12----12-|------15----15-------15----15|
E|--10-------------10----------|---13-------------13---------|
B|-----------------------------|-----------------------------|

-|-----------------------------|--------------------------------|
-|---------17-------------17---|---------14-------------14-----*|
-|------14----14-------14----14|------14----14-------14----14--*|
-|---12-------------12---------|---12-------------12------------|
-|-----------------------------|--------------------------------|

Bridge:
-|--------------------------|----------------------------|
-|------15-------------15---|--------14-------------14---|
-|---15----15-------15----15|-----14----14-------14----14|
-|13-------------13---------|--12-------------12---------|
-|--------------------------|----------------------------|

-|------16-------------16-------------16-------------16---|
-|--------------------------------------------------------|
-|---14----14-------14----14-------14----14-------14----14|
-|12-------------12-------------12-------------12---------|
-|--------------------------------------------------------|

-|--------------------------|--------14-------------14---|
-|------15-------------15---|-----14----14-------14----14|
-|---15----15-------15----15|--12-------------12---------|
-|13-------------13---------|----------------------------|
-|--------------------------|----------------------------|

-|--------------------------------------------------------|
-|------14-------------14-------------14-------------14---|
-|---14----14-------14----14-------14----14-------14----14|
-|12-------------12-------------12-------------12---------|
-|--------------------------------------------------------|

Break:
-|-------------|--------------------------|-------------------|
-|-------------|--------------------------|-------------------|
-|-------------|--------------------------|-------------------|
-|-------------|----------------10--------|-----10------------|
-|3-----5-----8|3-----5-----6--------5---5|--6-------5---5---0|

End:
-|-------------|---------------|
-|-------------|---------------|
-|-------------|---------------|
-|-------------|---------------|
-|3---6---5---5|--3---6---5---5|

            
            
Suggest correction
Creating personal tab
Creating personal tab
You can edit any tab online and save it as your Personal.

You can edit, replace or remove any tab part or add personal notes – all changes will be seen only by you.

Personal tabs can be accessed anytime from any device, even offline.
Learn more »
Give kudos to tab author, rate the tab!
1 2 3 4 5
comments
print report bad tab
guest
You may want to rate the tab now too:
select rating
Wanna post a correction for this tab? Suggest correction