Oops, an error
Loading. Please wait.

Engel Bass

version 1
version 1
32,960 views 54 this week
7 commentsread comments
1 2 3 4 5
x 13
add to favorites
launch autoscroll
font size
0
reset
guitar tuner
backing track
0:00
0:00
×
Best way to learn
"Engel"
Autoscroll
slow
fast
+/-
esc
set tempo
stop
Author
Title: Engel
Tabber: Matt G (falcon99@flash.net)
Date: 1-19-02

I saw the one tabbed before which was a correction to another one,
but it was a lil off and sounded so when played with the song.
Here's what i have determined to be the proper notes.

Two Methods, Method A is easier and sounds fine. Method B is actually the correct
way i belive, but is much harder.

[Method A]
[Riff #1]
G|-----------------------------|
D|-----------------------------|
A|--3-5--6-5--3-5-3-5--6-5-----|
E|-----------------------------|

[Riff #2]
G|-----------------------------|
D|-----------------------------|
A|--3-5--6-5--3-5-3----8888----|
E|-----------------------------|

[Method B]
G|-----------------------------|
D|-----------------------------|
A|--3555-6555-35553555-655555--|
E|-----------------------------|

[Riff #2]
G|-----------------------------|
D|-----------------------------|
A|--3555--6555-3555-3----8888--|
E|-----------------------------|

I know it looks simple (method B) but its harder... or maybe i jsut suck at playing the
bass.. lol

Also, if you happen to have a Digi tech BP200 or equivelent (DOD bass 30 or a BP-8) the
'gritty' preset w/ a lil more delay sound pretty close to the band's bass effects. Just
FYI if you care. The song is fun to play. its really fast tho, listen to the song while
you try to play it and get used to the speed, it might wear you out at first! hehehe

You'll have to listen to the song to get the order... but basically the intro is riff 1
followed by 2, then 1 followed by 2, then 1 a buncha times followed by 2 and so on.. any
time it sounds like a bass solo, its 1 followed immediately by 2.
Suggest correction
comments
print report bad tab
7 comments total. Showing first comments.
0 reply
Matt9960 50 Sep 02, 2002 08:00 PM

heh correction time actually.

on Riff #2, an easier way to do it is this:

G-----------------------------
D------------------3333-------
A--3-5--6-5--3-5-3------------
E-----------------------------


since i know a lot of newbie prolly look tabs like this up (good players dont need them, heh) i would highly recommend trying that method out, saves ya some arm work.. meh. :)


Matt
AIM: Sh0vel Man
email: falcon99@flash.net

0 reply
shaggy0120 10 Dec 30, 2002 07:00 PM

wrong

0 reply
4-string-4-eva 240 Jul 12, 2004 08:00 PM

its also easier to do this:

|------------------------
|---0--1-0----0---0--1-0-
|-3---------3---3--------
|------------------------

guest
You may want to rate the tab now too:
select rating
Wanna post a correction for this tab? Suggest correction