Oops, an error
Loading. Please wait.
We have an official Feuer Frei tab made by UG professional guitarists. Check out the tab »
×
62,136 views 69 this week
no commentswrite comment
1 2 3 4 5
x 22
add to favorites
×
Save as Personal and add changes to this tab that will be seen only by you. Learn more ›
×
You can save this tab as Personal to edit and correct it or add notes. All changes will be seen only by you. Learn more »
launch autoscroll
font size
0
reset
how to read this tab
guitar tuner
backing track
0:00
0:00
edit
Autoscroll
slow
fast
+/-
esc
set tempo
stop
This is Feuer Frei (Open Fire / Fire At Will) by Rammstein off the album Mutter (Mother)
I don't know what the other fools were listening too when writing their tabs so I 
figured I'd tab out the correct version.

Tunned to Dropped D low to high D-A-D-G-B-E


e|---------------------------|
B|---------------------------|
G|--------let ring-----------|
D|-5-------------------------|
A|-5-------------------------|
D|-5-------------------------|

With light Wah, slowly dipping the pedal as you repeat the riff.
Also try to slighty pinch the notes like a pinch harmonic if you know how.
e|----------------------------------|
B|----------------------------------|
G|----------------------------------|
D|----------------------------------|
A|----------------------------------|
D|-5h6p5-5h6p5-5h6p5-5h6p5-888-10---|

e|----------------------------------|
B|----------------------------------|
G|----------------------------------|
D|-5h6p5-5h6p5-5h6p5-5h6p5-888-10---|
A|-5h6p5-5h6p5-5h6p5-5h6p5-888-10---|
D|-5h6p5-5h6p5-5h6p5-5h6p5-888-10---|

[Verse]

e|-------------|  |------------|
B|-------------|  |------------|
G|-------------|or|---333-5----|
D|--888-10-----|  |---333-5----|
A|--888-10-----|  |---111-3----|
D|--888-10-----|  |------------|

[Chorus]

e|---------------------------------|   |------------------------|
B|---------------------------------|x3 |------------------------|
G|---------------------------------|   |----77777777-6666-3333--|
D|-5h6-5-5h6-5-5h6-5-5h6-5-888-10--|   |----77777777-6666-3333--|
A|-5h6-5-5h6-5-5h6-5-5h6-5-888-10--|   |----55555555-4444-1111--|
D|-5h6-5-5h6-5-5h6-5-5h6-5-888-10--|   |------------------------|
PM     -     -     -     -

[Interlude]
The second keyboard, tabbed out for guitar, so you not standing there looking 
stupid with nothing to do.
e|-15--15-15--15-15--15--15-15--15-15--13--13-13--13--13--13-13--10--10-10--10-10-|
B|--------------------------------------------------------------------------------|
G|--------------------------------------------------------------------------------|
D|--------------------------------------------------------------------------------|
A|--------------------------------------------------------------------------------|
D|--------------------------------------------------------------------------------|

-13--13-13--13-13--15--15-15--15-15--|
-------------------------------------|
-------------------------------------|
-------------------------------------|
-------------------------------------|
-------------------------------------|

[Outro]
The chorus already does this once, but repeat it twice more
|------------------------|                   |----------------|
|------------------------|                   |----------------|
|----77777777-6666-3333--|x2                 |--let-ring------|
|----77777777-6666-3333--|and then end with  |-5~---------5-5-|
|----55555555-4444-1111--|                   |-5~---------5-5-|
|------------------------|                   |-5~---------5-5-|


Tada! This plays perfectly with the album version and live version so play it with 
anything you want.



************************************

| x  Dead note
| h  Hammer-on
| p  Pull-off
| ~  Vibrato

************************************

            
            
Suggest correction
Creating personal tab
Creating personal tab
You can edit any tab online and save it as your Personal.

You can edit, replace or remove any tab part or add personal notes – all changes will be seen only by you.

Personal tabs can be accessed anytime from any device, even offline.
Learn more »
comments
print report bad tab
guest
You may want to rate the tab now too:
select rating
Wanna post a correction for this tab? Suggest correction