Oops, an error
Loading. Please wait.

Fruhling In Paris chords

version 5
version 5

Whole song

Interactive

778 views 9 this week
no commentswrite comment
1 2 3 4 5
3 more votes to show rating
add to favorites
×
Save as Personal and add changes to this tab that will be seen only by you. Learn more ›
×
You can save this tab as Personal to edit and correct it or add notes. All changes will be seen only by you. Learn more »
launch autoscroll
font size
0
reset
transpose
0
reset
simplify chords
display chords
guitar tuner
edit
Autoscroll
slow
fast
+/-
esc
set tempo
stop
Author
About this tab version
Accurate Drop D tuning version for those that don't like to stray too far from standard tuning. Was this info helpful? Yes No
Strumming
There is no strumming pattern for this song yet. and get +5 IQ
Rammstein "Frühling in Paris" Drop D Tuning

    F#m   D   C#m   Bm   E    A
e:-------------0------------------|
B:-------------2----3---------2---|
G:---2----2----2----4----1----2---|
D:---4----4----x----4----2----2---|
A:---4----5----4----2----2----0---|
D:---4----0--------------2--------|

Chord Patterns

  F#m                                             D
e:------------------------------------------------------------------------:
B:------------------------------------------------------------------------:
G:----2-----------2-----------2-----------2-----------2-----------2-------:
D:-------4-----------4-----------4-----------4-----------4-----------4----:
A:----------4-----------4-----------4-----------4-----------5-----------5-:
D:-4-----------4-----------4-----------4-----------0-----------0----------:

  C#m                     Bm                       E
e:----0-----------0-------------------------------------------------------:
B:-------2-----------2--------3-----------3-------------------------------:
G:----------2-----------2--------4-----------4--------1-----------1-------:
D:----------------------------------4-----------4--------2-----------2----:
A:-4-----------4-----------2-----------2--------------------2-----------2-:
D:-------------------------------------------------2-----------2----------:

F#m 
Im Lichtkleid kam sie auf mich zu 
D                        
ich weiß es noch wie heut' 
F#m     
Ich war so jung hab' mich geniert 
     D             F#m
doch hab' es nie bereut 

C#m                Bm           
Sie rief mir Worte ins Gesicht, 
C#m                Bm     
die Zunge lustgestreut
C#m                Bm
verstand nur ihre Sprache nicht
    E
ich hab'es nicht bereut

   A           F#m 
Oh non rien de rien
   A                 F#m 
Oh non je ne regrète rien
 
E
Wenn ich ihre Haut verließ 
    D                  F#m
der Frühling blutet in Paris 

F#m            
Ich kannte meinen Körper nicht 
    D             F#m 
den Anblick so gescheut 

sie hat ihn mir bei Licht gezeigt 
    D              F#m
ich hab es nicht bereut 

Die Lippen oft verkauft so weich 
D
und ewig sie berühr'n 
F#m
Wenn ich ihren Mund verließ 
     D              F#m
Dann fing ich an zu frier'n 

C#m                Bm           
Sie rief mir Worte ins Gesicht, 
C#m                Bm     
die Zunge lustgestreut
C#m                Bm
verstand nur ihre Sprache nicht
    E
ich hab' es nicht bereut

   A           F#m
Oh non rien de rien 
   A                 F#m
Oh non je ne regrète rien 
E                          
Wenn ich ihre Haut verließ 
    D              Dsus2    A    
der Frühling blutet in   Paris

F#m A F#m E D

F#m 
Ein Flüstern fiel mir in den Schoß 
    D             F#m
und führte feinen Klang 

hat viel geredet nichts gesagt 
    D             F#m
und fühlte sich gut an 

C#m                Bm           
Sie rief mir Worte ins Gesicht 
C#m                Bm      
und hat sich tief verbeugt
C#m                Bm
verstand nur ihre Sprache nicht 
    E
ich hab' es nicht bereut

   A           F#m
Oh non rien de rien
   A                 F#m 
Oh non je ne regrète rien 
E
Wenn ich ihre Haut verließ 
    D                    A
der Frühling blutet in Paris
       

            
            
Suggest correction
Creating personal tab
Creating personal tab
You can edit any tab online and save it as your Personal.

You can edit, replace or remove any tab part or add personal notes – all changes will be seen only by you.

Personal tabs can be accessed anytime from any device, even offline.
Learn more »
Give kudos to tab author, rate the tab!
1 2 3 4 5
comments
print report bad tab
guest
You may want to rate the tab now too:
select rating
Wanna post a correction for this tab? Suggest correction