Oops, an error
Loading. Please wait.

Heirate Mich tab

version 5
version 5

Interactive

9,246 views 1 this week
3 commentsread comments
1 2 3 4 5
x 5
add to favorites
×
Save as Personal and add changes to this tab that will be seen only by you. Learn more ›
×
You can save this tab as Personal to edit and correct it or add notes. All changes will be seen only by you. Learn more »
launch autoscroll
font size
0
reset
how to read this tab
guitar tuner
edit
Autoscroll
slow
fast
+/-
esc
set tempo
stop
Author
Difficulty
Artist:           Rammstein
Song:             Heirate Mich
Album:            Herzeleid
Tuning:           Standard
Transcribed By:   Engel1

Main Riff:                   3x
|------------------------------|-----------------|
|------------------------------|-----------------|
|------------------------------|-----------------| 4x
|---2----2---2---2-------------|---2----2---22---|
|---2----2---2---2-5/4-4-4\5---|---2----2---22---|
|---0-00-0-0-0-0-0-3/2-0-2\3---|---0-00-0-0-00---|
      ..   .   .                     ..   .

Chorus: I think this is how this part goes
|-----------------------------------|
|-----------------------------------|
|-----------------------------------|
|-----------------------------------|
|---5---4---44----44---4---44---4---|
|---3-3-2-2-22--2-22-2-2-2-22-2-2---|
      .   .     .    .   .    .

                           3x
|-----------------------------|-----------------|
|-----------------------------|-----------------|
|-----------------------------|-----------------|
|-----------------------------|-----------------|
|---6-----6------6----6---7---|---5-----5---5---|
|---4---4-4-44---4-44-4-4-5---|---3---3-3-3-3---|
        .   ..     ..   .             .   .

Main Riff:                   3x
|------------------------------|-----------------|
|------------------------------|-----------------|
|------------------------------|-----------------| 2x
|---2----2---2---2-------------|---2----2---22---|
|---2----2---2---2-5/4-4-4\5---|---2----2---22---|
|---0-00-0-0-0-0-0-3/2-0-2\3---|---0-00-0-0-00---|
      ..   .   .                     ..   .

Chorus:
|-----------------------------------|
|-----------------------------------|
|-----------------------------------|
|-----------------------------------|
|---5---4---44----44---4---44---4---|
|---3-3-2-2-22--2-22-2-2-2-22-2-2---|
      .   .     .    .   .    .

                           3x
|-----------------------------|-----------------|
|-----------------------------|-----------------|
|-----------------------------|-----------------|
|-----------------------------|-----------------|
|---6-----6------6----6---7---|---5-----5---5---|
|---4---4-4-44---4-44-4-4-5---|---3---3-3-3-3---|
        .   ..     ..   .             .   .

Main Riff:                   3x
|------------------------------|-----------------|
|------------------------------|-----------------|
|------------------------------|-----------------| 2x
|---2----2---2---2-------------|---2----2---22---|
|---2----2---2---2-5/4-4-4\5---|---2----2---22---|
|---0-00-0-0-0-0-0-3/2-0-2\3---|---0-00-0-0-00---|
      ..   .   .                     ..   .

Solo: Played with Wah
|--------------------------------| I broke the Solo down into
|---6^-----9~---7~---------------| five parts to make it easier
|-------------------6~-6h7p6-----| to learn.
|----------------------------7---|
|--------------------------------|
|--------------------------------|

|--------------------------------------------|
|--------------------------------------------|
|--------------------------------------------|
|---------------7------7-9-11-12-11--7-\9~---|
|---7-9-10-9-10---9-10-----------------------|
|--------------------------------------------|
    . . .  . .  . . .  . .

|----------------------------------------|
|---9-12-9-14-14-/9~-\17-16-14-12-14-----|
|----------------------------------------|
|-----------------------------------11---|
|----------------------------------------|
|----------------------------------------|

|----------------------------------|
|----------------------------------|
|----------------------------------|
|---13-------13-------13-----------|
|------11-11----11-11----11--11----|
|----------------------------------|

|-----------------------------------------------|
|---14-13h14-13h14p13/-10-13p10-9p10-9~---12~---|
|-----------------------------------------------|
|-----------------------------------------------|
|-----------------------------------------------|
|-----------------------------------------------|

Main Riff:                   3x
|------------------------------|-----------------|
|------------------------------|-----------------|
|------------------------------|-----------------| 2x
|---2----2---2---2-------------|---2----2---22---|
|---2----2---2---2-5/4-4-4\5---|---2----2---22---|
|---0-00-0-0-0-0-0-3/2-0-2\3---|---0-00-0-0-00---|
      ..   .   .                     .   .

Ok...this is an awsome song to play and it has a great solo for
begenners i think this tab sounds decent and as close to the real
thing some parts are a little hard to get the hang of but it is a
fun song to play i hope it's right and you like. Enjoy Playing
Suggest correction
Creating personal tab
Creating personal tab
You can edit any tab online and save it as your Personal.

You can edit, replace or remove any tab part or add personal notes – all changes will be seen only by you.

Personal tabs can be accessed anytime from any device, even offline.
Learn more »
comments
print report bad tab
3 comments total.
+1 reply
Engel1 234 Mar 24, 2008 08:29 AM

Actualy The Chorus Goes like this
|-----------------|
|-----------------|
|-----------------|
|-----------------|
|---5---4---4-2---|
|---3-3-2-2-2-0---| [3x]
. .
3x
|-----------------------------|-----------------|
|-----------------------------|-----------------|
|-----------------------------|-----------------|
|-----------------------------|-----------------|
|---6-----6------6----6---6---|---5-----5---5---|
|---4---4-4-44---4-44-4-4-4---|---3---3-3-3-3---|
. .. .. . . .

0 reply
Engel1 234 Apr 17, 2008 06:32 AM

wait no it doesn't

0 reply
Engel1 234 Aug 03, 2010 08:24 AM

uh yah i didnt think so...

guest
You may want to rate the tab now too:
select rating
Wanna post a correction for this tab? Suggest correction