Oops, an error
Loading. Please wait.

Herzeleid Bass Tab

version 1
version 1

Album

Whole song

Interactive

6,608 views 3 this week
1 commentread comment
1 2 3 4 5
accurate
x 8
add to favorites
launch autoscroll
font size
0
reset
guitar tuner
Autoscroll
slow
fast
+/-
esc
set tempo
stop
Help us to improve Ultimate-Guitar.com Take our survey!
×
Contributor
Difficulty
MotoGP 941
advanced
Album: Rammstein Herzeleid
Tuning: DADG, D#G#C#F#, EADG
------------------------------------------------------------------------------------

1: Wollt Ihr Das Bett in Flammen Sehen  

Intro/Main riff  
G|-----------------------------||-------------------------------------|  
D|-----------------------------||*-----------------------------------*|  
A|--5-------6-------5----------||*-3---5-------6-------5-------------*|  
D|------0-------0-------0---0--||----------0-------0-------0---0------|  

Verse 
G|-------------------------------------|  
D|------------------------------------*|  
A|*-3---5-------6-------5-------------*|  
E|----------0-------0-------0---0------|  

Alternative verse 
“SEX ist ...”  
G|-------------------------------------| |---------------------------------|  
D|------------------------------------*| |---------------------------------|  
A|------------------------------------*| |--------------------------3---5--|  
D|--0-0-0-0---3-0---0---0---0---0---0--| |--0---0---0---0---0---0----------|  

Quiet part (last verse)  
”Wollt ihr...”  
G|---------------------------------|  
D|--------------------------------*|  
A|--5-------6-------5-----------3-*|  
D|------0-------0-------0---0------| 

------------------------------------------------------------------------------------

2: Der Meister

Main riff  
Starts after ”Lauft”.  
G|--------------------------------------------------------------------------|  
D|-------------------------------------------------------------------------*|  
A|-------------------------------------------------------------------------*|  
D|--12---0---10---0---12---0---10---0---12---0---10---0---12---0---10---13--|  

2:57  
G|--------------------------------------------------------------------------|  
D|-------------------------------------------------------------------------*|  
A|-------------------------------------------------------------------------*|  
D|--14---0---12---0---14---0---12---0---14---0---12---0---14---0---12---15--| 

------------------------------------------------------------------------------------

3: Weisses Fleisch

Verse/Solo  
F#|---------------------------------|  
C#|---------------------------------|  
G#|---------------------------------|  
D#|--0---2---3---2---0---2---3---2--|  

After verse, just before each chorus  
F#|-------------------------|  
C#|-------------------------|  
G#|-------------------------|  
D#|--0---2---3---2---0---2--|  

1st Chorus  
F#|-------------------------------------------|  
C#|-------------------------------------------|  
G#|-------------------------------------------|  
D#|--3---0------5---3---2------3---0---5---3--|  

2nd Chorus  
F#|--------------------------------------------------|  
C#|--------------------------------------------------|  
G#|--------------------------------------------------|  
D#|--3---0------5---3---2------3---0------5---3---2--|  

Last chorus  
F#|--------------------------------------------------  
C#|--------------------------------------------------  
G#|--------------------------------------------------  
D#|--3---0------5---3---2------3---0------5---3---2—-  

F#|----------------------------------------------|  
C#|----------------------------------------------|  
G#|----------------------------------------------|  
D#|--3---0------5---3---2------3---0------5---3--|  

Final riff  
F#|-----------------------------------------------------|  
C#|-----------------------------------------------------|  
G#|-----------------------------------------------------|  
D#|--2---3---2---3---2---3---2---3---2---3---2---3---2--|  

------------------------------------------------------------------------------------

4: Ache Zu Asche

Main riff  
When drums start  
G|-----------------------------------------------------------------|  
D|-----------------------------------------------------------------|  
A|-----------------------------------------------------------------|  
E|--3---0---0---0---5---0---0---0---6---0---0---5---0---3---0---0--|  

End of Intro and middle part  
G|--------------------------------------------------------------|  
D|--------------------------------------------------------------|  
A|--------------------------------------------------------------|  
E|--3---0---0---0---5---0---0---0---7-7-7--7-7-7--7-7-7--7-7-7--|  

Solo  
G|--12----------------14----------------15------------14-------12----------|  
D|---------------14----------------14------------14------------------------|  
A|-------------------------------------------------------------------------|  
E|-------0---0-------------0---0-------------0-------------0--------0---0--|  

------------------------------------------------------------------------------------

5: Seemann

Main Riff 

G||-----------18-----------------16-----------------14-----------------13-------| 
D||------14--------14-------14--------14-------14--------14-------14--------14--| 
A||--0------------------0------------------0------------------0-----------------| 
E||-----------------------------------------------------------------------------| 

                         
G||-----------11----------------11----------------13----------------13----------| 
D||-------9--------9--------9--------9--------9--------9--------9--------9------| 
A||--11----------------11----------------11----------------11-------------------| 
E||-----------------------------------------------------------------------------| 


G||-----------14-----------------13-----------------11-----------------9--------| 
D||------11--------11-------11--------11-------11--------11-------11-------11---| 
A||--9------------------9------------------9------------------9-----------------| 
E||-----------------------------------------------------------------------------| 


G||-----------------------------------------------------------------------------| 
D||-----------11-----------------10-----------------11-----------------11-------| 
A||------11--------11-------11--------11-------11--------11-------11--------11--| 
E||--9------------------9------------------9------------------9-----------------| 


Break                                 
G|---------|---------| 
D|---------|---------| 
A|---------|---------| 
E|--0------|--0------| 

------------------------------------------------------------------------------------

6: Du Riechst So Gut

No bass during intro (bass starts at 0:08). Pre-verse: 

G||----------------------------| 
D||----------------------------| 
A||----------------------------| 
D||---0-1--0-1--0-1--1--0-1--0-| x 16 

Verse - ,,Der Wahnsinn ist nur..." - turn volume down a bit: 

G||----------------------------| 
D||----------------------------| 
A||----------------------------| 
D||---0-1--0-1--0-1--1--0-1--0-| x 8 

Pre-verse, then Verse again. Chorus: 

G||--------------------|-----------------------| 
D||--------------------|-----------------------| 
A||--------------------|-----------------------| 
D||--5--------8--------|--0----------0--0-0--0-| x 2 

Play this after the second run through of the Chorus (CODA) 
                                                             
G||--------------------|-----------------------|--------------------| 
D||--------------------|-----------------------|--------------------| 
A||--------------------|--3--------1-----------|--0-----------------| 
D||--0-----------------|-----------------------|--------------------| 

During Flake's "solo": 

G||--------------------|-----------------------| 
D||--------------------|-----------------------| 
A||--------------------|-----------------------| 
D||--5--------7--------|--0--------------------| x 2 

Then: 

                                                                                 
G||--------------------|----------------------| 
D||--------------------|----------------------| 
A||--3--------1--------|--0-------------------| 
D||--------------------|----------------------| 

Order: Verse, Chorus, "Solo" Then play Chorus till the end.  

------------------------------------------------------------------------------------

7: Das Alte Leid

Intro/Chorus (bass starts at 0:16) 

G||------------------------|-----------------------| 
D||------------------------|-----------------------| 
A||------------------------|-------------0---------| 
E||--0--2----0--2----2--2--|----0--2--0-------0----| 

Verse 

G||----------------------|-------------------------| 
D||----------------------|-------------------------| 
A||----------------------|-------------------------| 
E||--0--0----------0--0--|--0--0-------------------| 

------------------------------------------------------------------------------------

8: Heirate Mich

Main riff  
G|-----------------------------------------------------------------|  
D|*---------------------------------------------------------------*|  
A|*---------------------------------------------------------------*|x3  
E|--0---0---0---0---0---0---0---0---0---0---0---3---2---0---2---3--|  
Pm      .   .       .   .       .   .       .           .  

G|-------------------------------------|  
D|-------------------------------------|  
A|-------------------------------------|  
E|--0---0---0---0---0---0---0---0---0--|  
Pm      .   .       .   .       .  

Pre-chorus  
G|------------------------------------|   |---|  
D|-----------------------------------*|   |---|  
A|-----------------------------------*|x3 |---|  
E|--7------7---7---7---8---7---7---5--|   |-7-|  
Pm         .       .           .  

G|--------------------------------------------------------|  
D|-------------------------------------------------------*|  
A|-------------------------------------------------------*|x2  
E|--9-----9---9---9---9---9---9---9---9---9---10---9---7--|  
Pm        .       .   .       .   .       .  

End of pre-chorus  
G|------------------------------------------------------------------------------------|  
D|------------------------------------------------------------------------------------|  
A|------------------------------------------------------------------------------------|  
E|--9-----9---9---9---9---9---9---9---9---9---10---9---7---8-------8---8---8---8---8--|  
Pm        .       .   .       .   .       .                        .       .   .  

Solo  
G|-----------------------------------------------------------------|  
D|----------------------------------------------------------------*|  
A|----------------------------------------------------------------*|x3  
E|--7---7---7---7---7---7---7---7---7---7---7---7---7---8---7---5--|  
pm      .   .       .   .       .       .   .       .   .   .   .  

G|------------------------------------------------------------------|  
D|-----------------------------------------------------------------*|  
A|-----------------------------------------------------------------*|  
E|--9---9---9---9---9---9---9---9---9---9---9---9---9---10---9---5--|  
pm      .   .       .   .       .       .   .       .    .   .   .  

------------------------------------------------------------------------------------

9: Herzeleid

Main riff  
G|-------------------------|  
D|-------------------------|  
A|--------------3---4------|  
E|--2---3-2---2---------2--|  

Chorus  
G|--------------------------------|  
D|*-------------------------------|  
A|*-----------------3-4-----------|  
E|--0---2---2-2---2------2-2-2-2--|  

Bridge  
G|--------------------------------------------------  
D|--------------------------------------------------  
A|--------------7---8----------------------7---8----  
E|--6---7-6---6---------6------6---7-6---6-------6--  

G|--------------------------------------------------|  
D|-------------------------------------------------*|  
A|--------------6---7----------------------6---7---*|x2  
E|--5---6-5---5---------6------5---6-5---5-------5--|  

G|-------------------------------------------------------------------  
D|-------------------------------------------------------------------  
A|-------------------------------------------------------------------  
E|--5-6-6-6-8-6-5-6-5-6-6-6-6-6-6-6-5-6-6-6-8-6-5-6-5-6-6-6-6-6-6-6--  

G|-------------------------------------------------------------------|  
D|------------------------------------------------------------------*|  
A|------------------------------------------------------------------*|  
E|--3-5-5-5-6-5-3-5-3-5-5-5-5-5-5-5-3-5-5-5-6-5-3-5-3-5-5-5-5-5-5-5--|  

End of bridge  
G|---------------------------------------|  
D|---------------------------------------|  
A|------------------------------------7--|  
E|--5-6-6-6-5-6-5-6-5-6-6-6-6-6-6-6-6----|  

Guitar solo  
G|----------------------------------------------------  
D|----------------------------------------------------  
A|--------------8---9----------------------8---9------  
E|--7---8-7---7---------7------7---8-7---7---------7--  

G|------------------------------------------------------|  
D|-----------------------------------------------------*|  
A|--------------3---4----------------------3---4-------*|x2  
E|--2---3-2---2---------2------2---3-2---2----------2---|  

End of guitar solo  
G|----------------------------------------------------|  
D|----------------------------------------------------|  
A|--------------3---4----------------------3---4------|  
E|--2---3-2---2---------2------2---3-2---2---------2--| 

------------------------------------------------–-----------------------------------

10: Laichzeit

No bass in intro (bass starts at 0:14) 

G||----------------------------| 
D||----------------------------| 
A||----------------------------| 
E||--0-0-0--0-0-0--0--0--3--1--| x 6 

Then play: 

G||----------------------------| 
D||----------------------------| 
A||----------------------------| 
E||--0-0-0--0-0-0--0--1/-3/-1--| 

Pre-Bridge (1:57) 

G||----------------------------| 
D||----------------------------| 
A||----------------------------| 
E||--3---3---3---3-3--6--5-----| x 3 

Then play: 

G||----------------------------| 
D||----------------------------| 
A||----------------------------| 
E||-3--3--3--3--3-3-3--3-3-3-3-| 

G||----------------------------| 
D||----------------------------| 
A||----------------------------| 
E||-0--------------------------| 

No bass during bridge (2:11) 

Afterwards it repeats until the ending. The ending goes: 

G||----------------------------| 
D||----------------------------| 
A||----------------------------| 
E||--0-0-0--0-0-0----1----1----| x 3, getting slower each time 

------------------------------------------------------------------------------------

11: Rammstein

G||---------------------------|--------------------------| 
D||*--------------------------|--------------------------| 
A||*--------7--8--------7--8--|--------7--8--------8--7--| 
E||---0--0--------0--0--------|--0--0--------0--0--------| 

This is repeated throughout the whole song 

------------------------------------------------------------------------------------

That's it :) =) Have fun. Enjoy playing.

PM = Palm Mute


Suggest correction new What's this?
You can suggest a correction to this tab. Community and Mods will review your correction and vote to approve or reject it.
comments
print report bad tab
1 comment total.
0 reply
thickice19 42 wrote on September 9 2013, 12:50 pm

#11 is wrong, you only have part of the song. It makes me wonder what else is wrong.

guest
You may want to rate the tab now too:
select rating
Please do not post tabs as comments. Select "correction" instead!