Oops, an error
Loading. Please wait.

Herzeleid Bass Tab

version 3
version 3

Album

Whole song

Interactive

5,396 views 1 this week
no commentswrite comment
1 2 3 4 5
accurate
x 7
add to favorites
launch autoscroll
font size
0
reset
guitar tuner
Autoscroll
slow
fast
+/-
esc
set tempo
stop
Help us to improve Ultimate-Guitar.com Take our survey!
×
Wollt Ihr Das Bett In Flammen Sehen By Rammstein
Album: Herzeleid
Transcribed By Tier76@aol.com

       Main Riff                  Bridge
G---|--------------------------|-----------|----------------------------|
D---|--------------------------|-----------|----------------------------|
A---|--3--5-----6-----5--------|-----------|----------------------------|
D---|--------0-----0-----0--0--|--3--0--0--|----------------------------|


The Main riff played over the entire song. The Bridge is played
during the "Sex ist ein Schlacht" part. During the last three guitar chords.

Der Meister By Rammstein
Album:  Herzeleid
Transscribed By Tier76@aol.com

       Riff 1                                             Riff 2
G---|--------------------------------------------------|----------------|
D---|--------------------------------------------------|----------------|
A---|--7-----5-----7-----5-----7-----5-----7-----5--8--|--5-----3-------|
D---|-----0-----0-----0-----0-----0-----0-----0--------|-----0-----0----|

G---------------------------------------|-------------------------------|
D---------------------------------------|-------------------------------|
A---5-----3-----5-----3-----5-----3--6--|-------------------------------|
D------0-----0-----0-----0-----0--------|-------------------------------|

These riffs are played throughout the entire song. They change with
the guitars.

Weisses Fleisch by Rammstein
Album:  Herzeleid
Transcribed by Tier76@aol.com


    Verse                                              Chorus
G---------------------------------------------------|-------------------|
D---------------------------------------------------|-------------------|
A---------------------------------------------------|-------------------|
D---0--0--3--4--0--0--3--4--0--0--3--4--0--0--3--4--|--5--------2-------|

G---------------------------------------------------------------|-------|
D---------------------------------------------------------------|-------|
A---------------------------------------------------------------|-------|
D------7--------5--------4--------5--------2--------7--------5--|-------|

Asche Zu Asche By Rammstein
Album: Herzeleid
Transcribed By Tier76@aol.com


       Main Riff                                          Interlude
G---|--------------------------------------------------|--12------------|
D---|--------------------------------------------------|----------------|
A---|--------------------------------------------------|----------------|
E---|-----3--0--0--0--5--0--0--0--6--0--0--5--3--0--0--|------0--0------|

G-------14------------15---------14-----12--------12------------14------|
D---14------------14---------14-----------------------------14----------|
A-----------------------------------------------------------------------|
E-----------0--0----------0----------0------0--0------0--0--------------|

G----------15---------14-----12--------|--------------------------------|
D------14---------14-------------------|--------------------------------|
A--------------------------------------|--------------------------------|
E---0----------0----------0------0--0--|--------------------------------|


This song is pretty straight forward. Play the main riff throughout
the entire song. Towards the end play the interlude.

Seemann By Rammstein
Album: Herzeleid
Transcribed By Tier76@aol.com

       Main Riff
G---|-------------------------------------------------------------------|
D---|--------11-----------9-----------7-----------6-----------2---------|
A---|-----0------0-----0-----0-----0-----0-----0-----0-----2-----2------|
D---|--0------------0-----------0-----------0-----------2---------------|

G-----------------------------------------------------------------------|
D---------2-----------4-----------4-----------7-----------6-------------|
A------2-----2-----2-----2-----2-----2-----7-----7-----7-----7-----7----|
D---2-----------2-----------2-----------7-----------7-----------7-------|

G---------------------|-------------------------------------------------|
D---4-----------------|--------0-----------0-----------2-----------4----|
A------7-----5--7--5--|-----2-----2-----2-----2-----2-----2-----2-----2-|
D---------7-----------|--2-----------2-----------2-----------2----------|


The main riff is played over the entire song. Even when the heavy
guitars come in. At the end start to slow down at the bar line.

Du Riechst So Gut by Rammstein
Album:  Herzeleid
Transcribed By Tier76@aol.com

    Verse/Intro                            Chorus
G---------------------------------------|--------------------|----------|
D---------------------------------------|-----3--------------|----------|
A---------------------------------------|--3-----------------|----------|
D---0-----1-----0--1--0--1--0--1--1--0--|--------0--3--1--0--|----------|

Song:  Das Alte Leid
ALbum: Herzeleid
Band:  Rammstein
Tabbed By Sugarbush


Intro/Chorus
G:-----------------------------------------|
D:-----------------------------------------|
A:-----------------------------------------|
E:-0-2-0-2-0-2-0-2-5-0-0-2-0-2-0-2-0-2-5-0-|

Verse

G:--------------|
D:--------------|
A:--------------|
E:-0-0--0-0-0-0-|

Rammstein - Herzeleid - Herzeleid

        Verse           Chorus
G:--------------|-----------------|
D:--------------|-----------------|
A:--------------|-----------------|
E:-0-00-0-3-5-0-|-05-0-00-0-3-5-0-|

Song: Heirate Mich
Album: Herzelied
Band:  Rammstein
Tabbed By Sugarbush

Intro/Chorus
G:--------------------|---------------|
D:--------------------|---------------|
A:--------------------|---------------|
E:-0-0-0-0-0--3-2-2-3-|-0-0-0-0-0-0-0-|

Song:  Laichzeit
Album: Herzeleid
Band:  Rammstein
Tabbed By Sugarbush


Intro/CHorus
G:-----------------------|
D:-----------------------|
A:-----------------------|
E:-0-0-0--0-0-0--0-0-3-1-|

Verse 2/3/Bridge (Comes into it a little ways in verse 2, but in 3 starts right away)

G:--------------|
D:--------------|
A:--------------|
E:-3-3-3--3-6-4-|

Outro

G:---------------------------------------------------|
D:---------------------------------------------------|
A:---------------------------------------------------|
E:-0-0-0-0-0-0-1-1-0-0-0-0-0-0-1-1-0-0-0-0-0-0-1-1-0-|

Rammstein By Rammstein
Album: Herzeleid
Transcribed by Tier76@aol.com


                                                              5x
G||------------------|------------------||--------------------||
D||------------------|------------------||*------------------*||
A||------------------|------------------||*------------------*||
E||------------------|------------------||--------------------||


---------------------------------|--------------------------------|
*--------------------------------|--------------------------------|
*--------------------------------|--------------------------------|
---0-0-0-1-0-0-0-1-0-0-0-1---1-0-|--0-0-0-1-0-0-0-1-0-0-0-1---1-0-|


--------------------------------|------------------------------|
--------------------------------|------------------------------|
--------------------------------|------------------------------|
--0-0-0-1-0-0-0-1-0-0-0-1---1-0-|--0-0-0-1-0-0-0-1-0-0-0-1-----|


--------------------------------|--------------------------------|
--------------------------------|--------------------------------|
--------------------------------|--------------------------------|
--0-0-0-1-0-0-0-1-0-0-0-1---1-0-|--0-0-0-1-0-0-0-1-0-0-0-1---1-0-|


--------------------------------|------------------------------|
--------------------------------|------------------------------|
--------------------------------|------------------------------|
--0-0-0-1-0-0-0-1-0-0-0-1---1-0-|--0-0-0-1-0-0-0-1-0-0-0-1-----|


--------------------------------|--------------------------------|
--------------------------------|--------------------------------|
--------------------------------|--------------------------------|
--0-0-0-1-0-0-0-1-0-0-0-1---1-0-|--0-0-0-1-0-0-0-1-0-0-0-1---1-0-|


--------------------------------|------------------------------|
--------------------------------|------------------------------|
--------------------------------|------------------------------|
--0-0-0-1-0-0-0-1-0-0-0-1---1-0-|--0-0-0-1-0-0-0-1-0-0-0-1-----|


----------------------------------|----------------------------------|
----------------------------------|----------------------------------|
----------------------------------|----------------------------------|
--0-0-0-1-0-0-0-1-0-0-0-1-0-0-0-1-|--0-0-0-1-0-0-0-1-0-0-0-1-0-0-0-1-|


----------------------------------|-----------------------------------||
----------------------------------|----------------------------------*||
----------------------------------|----------------------------------*||
--0-0-0-1-0-0-0-1-0-0-0-1-0-0-0-1-|--0-0-0-1-0-0-0-1-0-0-0-1-0-0-0-1--||


--------------------------------|--------------------------------|
--------------------------------|--------------------------------|
--------------------------------|--------------------------------|
--0-0-0-1-0-0-0-1-0-0-0-1---1-0-|--0-0-0-1-0-0-0-1-0-0-0-1---1-0-|


--------------------------------|------------------------------|
--------------------------------|------------------------------|
--------------------------------|------------------------------|
--0-0-0-1-0-0-0-1-0-0-0-1---1-0-|--0-0-0-1-0-0-0-1-0-0-0-1-----|


------------------|------------------|------------------|------------------|
------------------|------------------|------------------|------------------|
------------------|------------------|------------------|------------------|
------------------|------------------|------------------|------------------|


------------------|------------------|------------------|
------------------|------------------|------------------|
------------------|------------------|------------------|
------------------|------------------|------------------|


--------------------------------|--------------------------------|
--------------------------------|--------------------------------|
--------------------------------|--------------------------------|
--0-0-0-1-0-0-0-1-0-0-0-1---1-0-|--0-0-0-1-0-0-0-1-0-0-0-1---1-0-|


--------------------------------|------------------------------|
--------------------------------|------------------------------|
--------------------------------|------------------------------|
--0-0-0-1-0-0-0-1-0-0-0-1---1-0-|--0-0-0-1-0-0-0-1-0-0-0-1-----|


--------------------------------|--------------------------------|
--------------------------------|--------------------------------|
--------------------------------|--------------------------------|
--0-0-0-1-0-0-0-1-0-0-0-1---1-0-|--0-0-0-1-0-0-0-1-0-0-0-1---1-0-|


--------------------------------|------------------------------|
--------------------------------|------------------------------|
--------------------------------|------------------------------|
--0-0-0-1-0-0-0-1-0-0-0-1---1-0-|--0-0-0-1-0-0-0-1-0-0-0-1-----|


--------------------------------|--------------------------------|
--------------------------------|--------------------------------|
--------------------------------|--------------------------------|
--0-0-0-1-0-0-0-1-0-0-0-1---1-0-|--0-0-0-1-0-0-0-1-0-0-0-1---1-0-|


--------------------------------|------------------------------|
--------------------------------|------------------------------|
--------------------------------|------------------------------|
--0-0-0-1-0-0-0-1-0-0-0-1---1-0-|--0-0-0-1-0-0-0-1-0-0-0-1-----|


----------------------------------|--------------------|------------------|
----------------------------------|--------------------|------------------|
----------------------------------|--------------------|------------------|
--0-0-0-1-0-0-0-1-0-0-0-1-0-0-0-1-|--0-0---------------|------------------|


--------------------------------|--------------------------------|
--------------------------------|--------------------------------|
--------------------------------|--------------------------------|
--0-0-0-1-0-0-0-1-0-0-0-1---1-0-|--0-0-0-1-0-0-0-1-0-0-0-1---1-0-|


--------------------------------|------------------------------|
--------------------------------|------------------------------|
--------------------------------|------------------------------|
--0-0-0-1-0-0-0-1-0-0-0-1---1-0-|--0-0-0-1-0-0-0-1-0-0-0-1-----|


--------------------------------|--------------------------------|
--------------------------------|--------------------------------|
--------------------------------|--------------------------------|
--0-0-0-1-0-0-0-1-0-0-0-1---1-0-|--0-0-0-1-0-0-0-1-0-0-0-1---1-0-|


--------------------------------|--------------------------------|
--------------------------------|--------------------------------|
--------------------------------|--------------------------------|
--0-0-0-1-0-0-0-1-0-0-0-1---1-0-|--0-0-0-1-0-0-0-1-0-0-0-1---1-0-|


--------------------------------|------------------------------|
--------------------------------|------------------------------|
--------------------------------|------------------------------|
--0-0-0-1-0-0-0-1-0-0-0-1---1-0-|--0-0-0-1-0-0-0-1-0-0-0-1-----|


--------------------------------|--------------------------------|
--------------------------------|--------------------------------|
--------------------------------|--------------------------------|
--0-0-0-1-0-0-0-1-0-0-0-1---1-0-|--0-0-0-1-0-0-0-1-0-0-0-1---1-0-|


--------------------------------|------------------------------|
--------------------------------|------------------------------|
--------------------------------|------------------------------|
--0-0-0-1-0-0-0-1-0-0-0-1---1-0-|--0-0-0-1-0-0-0-1-0-0-0-1-----|


-----------------------------||
-----------------------------||
-----------------------------||
--0-0-0-1-0-0-0-1-0-0-0------||
Suggest correction
What's this?
You can suggest a correction to this tab. Community and Mods will review your correction and vote to approve or reject it.
comments
print report bad tab
guest
You may want to rate the tab now too:
select rating
Please do not post tabs as comments. Select "correction" instead!