Oops, an error
Loading. Please wait.

Herzeleid tab

version 2
version 2

Whole song

Interactive

7,786 views 6 this week
no commentswrite comment
1 2 3 4 5
x 4
add to favorites
×
Save as Personal and add changes to this tab that will be seen only by you. Learn more ›
×
You can save this tab as Personal to edit and correct it or add notes. All changes will be seen only by you. Learn more »
launch autoscroll
font size
0
reset
how to read this tab
guitar tuner
edit
Autoscroll
slow
fast
+/-
esc
set tempo
stop
Author
T: 101 bpm
                                                                                 
E||-------------------------|-------------------------|-------------------------|
B||-------------------------|-------------------------|-------------------------|
G||-------------------------|-------------------------|-------------------------|
D||--------------4--4-------|--------------4--4-------|--------------4--4-------|
A||----4--4-4--4-4--3-------|----4--4-4--4-4--3-------|----4--4-4--4-4--3-------|
E||----2--3-2--2-3--x--2----|----2--3-2--2-3--x--2----|----2--3-2--2-3--x--2----|


                                                                              
-------------------------|-------------------------|-------------------------|
-------------------------|-------------------------|-------------------------|
-------------------------|-------------------------|-------------------------|
--------------4--4-------|--------------4--4-------|--------------4--4-------|
----4--4-4--4-4--3-------|----4--4-4--4-4--3-------|----4--4-4--4-4--3-------|
----2--3-2--2-3--x--2----|----2--3-2--2-3--x--2----|----2--3-2--2-3--x--2----|


                                                                              
-------------------------|-------------------------|-------------------------|
-------------------------|-------------------------|-------------------------|
-------------------------|-------------------------|-------------------------|
--------------4--4-------|--------------4--4-------|--------------4--4-------|
----4--4-4--4-4--3-------|----4--4-4--4-4--3-------|----4--4-4--4-4--3-------|
----2--3-2--2-3--x--2----|----2--3-2--2-3--x--2----|----2--3-2--2-3--x--2----|


                                                                              
-------------------------|-------------------------|-------------------------|
-------------------------|-------------------------|-------------------------|
-------------------------|-------------------------|-------------------------|
--------------4--4-------|--------------4--4-------|--------------4--4-------|
----4--4-4--4-4--3-------|----4--4-4--4-4--3-------|----4--4-4--4-4--3-------|
----2--3-2--2-3--x--2----|----2--3-2--2-3--x--2----|----2--3-2--2-3--x--2----|


                                                                              
-------------------------|-------------------------|-------------------------|
-------------------------|-------------------------|-------------------------|
-------------------------|-------------------------|-------------------------|
--------------4--4-------|--------------4--4-------|--------------4--4-------|
----4--4-4--4-4--3-------|----4--4-4--4-4--3-------|----4--4-4--4-4--3-------|
----2--3-2--2-3--x--2----|----2--3-2--2-3--x--2----|----2--3-2--2-3--x--2----|


                                                                                      
-------------------------|-----------------------------|-----------------------------|
-------------------------|-----------------------------|-----------------------------|
-------------------------|-----------------------------|-----------------------------|
--------------4--4-------|--2--4----4----4--4----------|--2--4----4----4--4----------|
----4--4-4--4-4--3-------|--2--4----4----4--3--4-------|--2--4----4----4--3--4-------|
----2--3-2--2-3--x--2----|--0--2--2-2--2-3--x--2-2-2-2-|--0--2--2-2--2-3--x--2-2-2-2-|


                                                                                   
-----------------------------|--------------------------|-------------------------|
-----------------------------|--------------------------|-------------------------|
-----------------------------|--------------------------|-------------------------|
--2--4----4----4--4----------|--2--4----4----4--4-------|--------------4--4-------|
--2--4----4----4--3--4-------|--2--4----4----4--3--4----|----4--4-4--4-4--3-------|
--0--2--2-2--2-3--x--2-2-2-2-|--0--2--2-2--2-3--x--2----|----2--3-2--2-3--x--2----|


                                                                              
-------------------------|-------------------------|-------------------------|
-------------------------|-------------------------|-------------------------|
-------------------------|-------------------------|-------------------------|
--------------4--4-------|--------------4--4-------|--------------4--4-------|
----4--4-4--4-4--3-------|----4--4-4--4-4--3-------|----4--4-4--4-4--3-------|
----2--3-2--2-3--x--2----|----2--3-2--2-3--x--2----|----2--3-2--2-3--x--2----|


                                                                              
-------------------------|-------------------------|-------------------------|
-------------------------|-------------------------|-------------------------|
-------------------------|-------------------------|-------------------------|
--------------4--4-------|--------------4--4-------|--------------4--4-------|
----4--4-4--4-4--3-------|----4--4-4--4-4--3-------|----4--4-4--4-4--3-------|
----2--3-2--2-3--x--2----|----2--3-2--2-3--x--2----|----2--3-2--2-3--x--2----|


                                                                              
-------------------------|-------------------------|-------------------------|
-------------------------|-------------------------|-------------------------|
-------------------------|-------------------------|-------------------------|
--------------4--4-------|--------------4--4-------|--------------4--4-------|
----4--4-4--4-4--3-------|----4--4-4--4-4--3-------|----4--4-4--4-4--3-------|
----2--3-2--2-3--x--2----|----2--3-2--2-3--x--2----|----2--3-2--2-3--x--2----|


                                                                              
-------------------------|-------------------------|-------------------------|
-------------------------|-------------------------|-------------------------|
-------------------------|-------------------------|-------------------------|
--------------4--4-------|--------------4--4-------|--------------4--4-------|
----4--4-4--4-4--3-------|----4--4-4--4-4--3-------|----4--4-4--4-4--3-------|
----2--3-2--2-3--x--2----|----2--3-2--2-3--x--2----|----2--3-2--2-3--x--2----|


                                                                              
-------------------------|-------------------------|-------------------------|
-------------------------|-------------------------|-------------------------|
-------------------------|-------------------------|-------------------------|
--------------4--4-------|--------------4--4-------|--------------4--4-------|
----4--4-4--4-4--3-------|----4--4-4--4-4--3-------|----4--4-4--4-4--3-------|
----2--3-2--2-3--x--2----|----2--3-2--2-3--x--2----|----2--3-2--2-3--x--2----|


                                                                                          
-----------------------------|-----------------------------|-----------------------------|
-----------------------------|-----------------------------|-----------------------------|
-----------------------------|-----------------------------|-----------------------------|
--2--4----4----4--4----------|--2--4----4----4--4----------|--2--4----4----4--4----------|
--2--4----4----4--3--4-------|--2--4----4----4--3--4-------|--2--4----4----4--3--4-------|
--0--2--2-2--2-3--x--2-2-2-2-|--0--2--2-2--2-3--x--2-2-2-2-|--0--2--2-2--2-3--x--2-2-2-2-|


                                                                                          
-----------------------------|-----------------------------|-----------------------------|
-----------------------------|-----------------------------|-----------------------------|
-----------------------------|-----------------------------|-----------------------------|
--2--4----4----4--4----------|--2--4----4----4--4----------|--2--4----4----4--4----------|
--2--4----4----4--3--4-------|--2--4----4----4--3--4-------|--2--4----4----4--3--4-------|
--0--2--2-2--2-3--x--2-2-2-2-|--0--2--2-2--2-3--x--2-2-2-2-|--0--2--2-2--2-3--x--2-2-2-2-|


                                                                                   
-----------------------------|--------------------------|-------------------------|
-----------------------------|--------------------------|-------------------------|
-----------------------------|--------------------------|-------------------------|
--2--4----4----4--4----------|--2--4----4----4--4-------|--------------8--8-------|
--2--4----4----4--3--4-------|--2--4----4----4--3--4----|----8--8-8--8-8--7-------|
--0--2--2-2--2-3--x--2-2-2-2-|--0--2--2-2--2-3--x--2----|----6--7-6--6-7--x--6----|


                                                                              
-------------------------|-------------------------|-------------------------|
-------------------------|-------------------------|-------------------------|
-------------------------|-------------------------|-------------------------|
--------------8--8-------|--------------7--7-------|--------------7--7-------|
----8--8-8--8-8--7-------|----7--7-7--7-7--6-------|----7--7-7--7-7--6-------|
----6--7-6--6-7--x--6----|----5--6-5--5-6--x--5----|----5--6-5--5-6--x--5----|


                                                                              
-------------------------|-------------------------|-------------------------|
-------------------------|-------------------------|-------------------------|
-------------------------|-------------------------|-------------------------|
--------------8--8-------|--------------8--8-------|--------------7--7-------|
----8--8-8--8-8--7-------|----8--8-8--8-8--7-------|----7--7-7--7-7--6-------|
----6--7-6--6-7--x--6----|----6--7-6--6-7--x--6----|----5--6-5--5-6--x--5----|


                                                             
-------------------------|----------------------------------|
-------------------------|----------------------------------|
-------------------------|----------------------------------|
--------------7--7-------|----------------------------------|
----7--7-7--7-7--6-------|--7/8-----7/8-7/8-7/8-------------|
----5--6-5--5-6--x--5----|--5/6-6-6-5/6-5/6-5/6-6-6-6-6-6-6-|


                                                                      
----------------------------------|----------------------------------|
----------------------------------|----------------------------------|
----------------------------------|----------------------------------|
----------------------------------|----------------------------------|
--7/8-----7/8-7/8-7/8-------------|--5/7-----5/7-5/7-5/7-------------|
--5/6-6-6-5/6-5/6-5/6-6-6-6-6-6-6-|--3/5-5-5-3/5-3/5-3/5-5-5-5-5-5-5-|


                                                                      
----------------------------------|----------------------------------|
----------------------------------|----------------------------------|
----------------------------------|----------------------------------|
----------------------------------|----------------------------------|
--5/7-----5/7-5/7-5/7-------------|--7/8-----7/8-7/8-7/8-------------|
--3/5-5-5-3/5-3/5-3/5-5-5-5-5-5-5-|--5/6-6-6-5/6-5/6-5/6-6-6-6-6-6-6-|


                                                                      
----------------------------------|----------------------------------|
----------------------------------|----------------------------------|
----------------------------------|----------------------------------|
----------------------------------|----------------------------------|
--7/8-----7/8-7/8-7/8-------------|--5/7-----5/7-5/7-5/7-------------|
--5/6-6-6-5/6-5/6-5/6-6-6-6-6-6-6-|--3/5-5-5-3/5-3/5-3/5-5-5-5-5-5-5-|


                                                                                          
----------------------------------|----------------------------------|-------------------|
----------------------------------|----------------------------------|-------------------|
----------------------------------|----------------------------------|-------------------|
----------------------------------|----------------------------------|--9----------------|
--5/7-----5/7-5/7-5/7-------------|--7/8-----7/8-7/8-7/8-------------|--7----------------|
--3/5-5-5-3/5-3/5-3/5-5-5-5-5-5-5-|--5/6-6-6-5/6-5/6-5/6-6-6-6-6-6-6-|-------------------|


                                                                                          
------------------|------------------|-------------------------|-------------------------|
------------------|------------------|-------------------------|-------------------------|
------------------|------------------|-------------------------|-------------------------|
------------------|------------------|--------------4--4-------|--------------4--4-------|
------------------|------------------|----4--4-4--4-4--3-------|----4--4-4--4-4--3-------|
------------------|------------------|----2--3-2--2-3--x--2----|----2--3-2--2-3--x--2----|


                                                                              
-------------------------|-------------------------|-------------------------|
-------------------------|-------------------------|-------------------------|
-------------------------|-------------------------|-------------------------|
--------------4--4-------|--------------4--4-------|--------------4--4-------|
----4--4-4--4-4--3-------|----4--4-4--4-4--3-------|----4--4-4--4-4--3-------|
----2--3-2--2-3--x--2----|----2--3-2--2-3--x--2----|----2--3-2--2-3--x--2----|


                                                                              
-------------------------|-------------------------|-------------------------|
-------------------------|-------------------------|-------------------------|
-------------------------|-------------------------|-------------------------|
--------------4--4-------|--------------4--4-------|--------------4--4-------|
----4--4-4--4-4--3-------|----4--4-4--4-4--3-------|----4--4-4--4-4--3-------|
----2--3-2--2-3--x--2----|----2--3-2--2-3--x--2----|----2--3-2--2-3--x--2----|


                                                                    
-------------------------|--------------------|--------------------|
-------------------------|--------------------|--------------------|
-------------------------|--2h4---------------|--------------------|
--------------4--4-------|--2h4---------------|----------------4---|
----4--4-4--4-4--3-------|--------------------|------------------4-|
----2--3-2--2-3--x--2----|--------------------|--------------------|


                                                                        
-----------------------------|--------------------|--------------------|
-----------------------------|--------------------|--------------------|
-------4r-2-------2----------|--------------------|--2h4---------------|
--6r-4------4---2-2---2-4----|----------------4---|--2-4---------------|
--------------4-----4---4----|------------------4-|--------------------|
-----------------------------|--------------------|--------------------|


                                                                             
-------------------|------------------|------------------|------------------|
-------------------|------------------|------------------|------------------|
-------------------|------------------|------------------|------------------|
-------------------|------------------|------------------|------------------|
-----------------9-|------------------|------------------|------------------|
-------------------|------------------|------------------|------------------|


                                                                               
------------------|-----------------------------|-----------------------------|
------------------|-----------------------------|-----------------------------|
------------------|-----------------------------|-----------------------------|
------------------|--2--4----4----4--4----------|--2--4----4----4--4----------|
------------------|--2--4----4----4--3--4-------|--2--4----4----4--3--4-------|
------------------|--0--2--2-2--2-3--x--2-2-2-2-|--0--2--2-2--2-3--x--2-2-2-2-|


                                                                                          
-----------------------------|-----------------------------|-----------------------------|
-----------------------------|-----------------------------|-----------------------------|
-----------------------------|-----------------------------|-----------------------------|
--2--4----4----4--4----------|--2--4----4----4--4----------|--2--4----4----4--4----------|
--2--4----4----4--3--4-------|--2--4----4----4--3--4-------|--2--4----4----4--3--4-------|
--0--2--2-2--2-3--x--2-2-2-2-|--0--2--2-2--2-3--x--2-2-2-2-|--0--2--2-2--2-3--x--2-2-2-2-|


                                                                                        
-----------------------------|-----------------------------|--------------------------||
-----------------------------|-----------------------------|--------------------------||
-----------------------------|-----------------------------|--------------------------||
--2--4----4----4--4----------|--2--4----4----4--4----------|--2--4----4----4--4-------||
--2--4----4----4--3--4-------|--2--4----4----4--3--4-------|--2--4----4----4--3--4----||
--0--2--2-2--2-3--x--2-2-2-2-|--0--2--2-2--2-3--x--2-2-2-2-|--0--2--2-2--2-3--x--2----||



            
            
Suggest correction
Creating personal tab
Creating personal tab
You can edit any tab online and save it as your Personal.

You can edit, replace or remove any tab part or add personal notes – all changes will be seen only by you.

Personal tabs can be accessed anytime from any device, even offline.
Learn more »
comments
print report bad tab
guest
You may want to rate the tab now too:
select rating
Wanna post a correction for this tab? Suggest correction